  0
SECTION
  2
HEADER
  9
$ACADVER
  1
AC1014
  9
$ACADMAINTVER
 70
     9
  9
$DWGCODEPAGE
  3
ANSI_1252
  9
$INSBASE
 10
0.0
 20
0.0
 30
0.0
  9
$EXTMIN
 10
1.000000000000000E+20
 20
1.000000000000000E+20
 30
1.000000000000000E+20
  9
$EXTMAX
 10
-1.000000000000000E+20
 20
-1.000000000000000E+20
 30
-1.000000000000000E+20
  9
$LIMMIN
 10
0.0
 20
0.0
  9
$LIMMAX
 10
12.0
 20
9.0
  9
$ORTHOMODE
 70
     0
  9
$REGENMODE
 70
     1
  9
$FILLMODE
 70
     1
  9
$QTEXTMODE
 70
     0
  9
$MIRRTEXT
 70
     1
  9
$DRAGMODE
 70
     2
  9
$LTSCALE
 40
1.0
  9
$OSMODE
 70
    37
  9
$ATTMODE
 70
     1
  9
$TEXTSIZE
 40
0.2
  9
$TRACEWID
 40
0.05
  9
$TEXTSTYLE
  7
STANDARD
  9
$CLAYER
  8
0
  9
$CELTYPE
  6
BYLAYER
  9
$CECOLOR
 62
   256
  9
$CELTSCALE
 40
1.0
  9
$DELOBJ
 70
     1
  9
$DISPSILH
 70
     0
  9
$DIMSCALE
 40
1.0
  9
$DIMASZ
 40
0.18
  9
$DIMEXO
 40
0.0625
  9
$DIMDLI
 40
0.38
  9
$DIMRND
 40
0.0
  9
$DIMDLE
 40
0.0
  9
$DIMEXE
 40
0.18
  9
$DIMTP
 40
0.0
  9
$DIMTM
 40
0.0
  9
$DIMTXT
 40
0.18
  9
$DIMCEN
 40
0.09
  9
$DIMTSZ
 40
0.0
  9
$DIMTOL
 70
     0
  9
$DIMLIM
 70
     0
  9
$DIMTIH
 70
     1
  9
$DIMTOH
 70
     1
  9
$DIMSE1
 70
     0
  9
$DIMSE2
 70
     0
  9
$DIMTAD
 70
     0
  9
$DIMZIN
 70
     0
  9
$DIMBLK
  1

  9
$DIMASO
 70
     1
  9
$DIMSHO
 70
     1
  9
$DIMPOST
  1

  9
$DIMAPOST
  1

  9
$DIMALT
 70
     0
  9
$DIMALTD
 70
     2
  9
$DIMALTF
 40
25.4
  9
$DIMLFAC
 40
1.0
  9
$DIMTOFL
 70
     0
  9
$DIMTVP
 40
0.0
  9
$DIMTIX
 70
     0
  9
$DIMSOXD
 70
     0
  9
$DIMSAH
 70
     0
  9
$DIMBLK1
  1

  9
$DIMBLK2
  1

  9
$DIMSTYLE
  2
STANDARD
  9
$DIMCLRD
 70
     0
  9
$DIMCLRE
 70
     0
  9
$DIMCLRT
 70
     0
  9
$DIMTFAC
 40
1.0
  9
$DIMGAP
 40
0.09
  9
$DIMJUST
 70
     0
  9
$DIMSD1
 70
     0
  9
$DIMSD2
 70
     0
  9
$DIMTOLJ
 70
     1
  9
$DIMTZIN
 70
     0
  9
$DIMALTZ
 70
     0
  9
$DIMALTTZ
 70
     0
  9
$DIMFIT
 70
     3
  9
$DIMUPT
 70
     0
  9
$DIMUNIT
 70
     2
  9
$DIMDEC
 70
     4
  9
$DIMTDEC
 70
     4
  9
$DIMALTU
 70
     2
  9
$DIMALTTD
 70
     2
  9
$DIMTXSTY
  7
STANDARD
  9
$DIMAUNIT
 70
     0
  9
$LUNITS
 70
     2
  9
$LUPREC
 70
     4
  9
$SKETCHINC
 40
0.1
  9
$FILLETRAD
 40
0.5
  9
$AUNITS
 70
     0
  9
$AUPREC
 70
     0
  9
$MENU
  1
.
  9
$ELEVATION
 40
0.0
  9
$PELEVATION
 40
0.0
  9
$THICKNESS
 40
0.0
  9
$LIMCHECK
 70
     0
  9
$CHAMFERA
 40
0.0
  9
$CHAMFERB
 40
0.0
  9
$CHAMFERC
 40
0.0
  9
$CHAMFERD
 40
0.0
  9
$SKPOLY
 70
     0
  9
$TDCREATE
 40
2457962.236950949
  9
$TDUPDATE
 40
2457962.2369511
  9
$TDINDWG
 40
0.0000000116
  9
$TDUSRTIMER
 40
0.0000000116
  9
$USRTIMER
 70
     1
  9
$ANGBASE
 50
0.0
  9
$ANGDIR
 70
     0
  9
$PDMODE
 70
     0
  9
$PDSIZE
 40
0.0
  9
$PLINEWID
 40
0.0
  9
$COORDS
 70
     1
  9
$SPLFRAME
 70
     0
  9
$SPLINETYPE
 70
     6
  9
$SPLINESEGS
 70
     8
  9
$ATTDIA
 70
     0
  9
$ATTREQ
 70
     1
  9
$HANDLING
 70
     1
  9
$HANDSEED
  5
100005E7
  9
$SURFTAB1
 70
     6
  9
$SURFTAB2
 70
     6
  9
$SURFTYPE
 70
     6
  9
$SURFU
 70
     6
  9
$SURFV
 70
     6
  9
$UCSNAME
  2

  9
$UCSORG
 10
0.0
 20
0.0
 30
0.0
  9
$UCSXDIR
 10
1.0
 20
0.0
 30
0.0
  9
$UCSYDIR
 10
0.0
 20
1.0
 30
0.0
  9
$PUCSNAME
  2

  9
$PUCSORG
 10
0.0
 20
0.0
 30
0.0
  9
$PUCSXDIR
 10
1.0
 20
0.0
 30
0.0
  9
$PUCSYDIR
 10
0.0
 20
1.0
 30
0.0
  9
$USERI1
 70
     0
  9
$USERI2
 70
     0
  9
$USERI3
 70
     0
  9
$USERI4
 70
     0
  9
$USERI5
 70
     0
  9
$USERR1
 40
0.0
  9
$USERR2
 40
0.0
  9
$USERR3
 40
0.0
  9
$USERR4
 40
0.0
  9
$USERR5
 40
0.0
  9
$WORLDVIEW
 70
     1
  9
$SHADEDGE
 70
     3
  9
$SHADEDIF
 70
    70
  9
$TILEMODE
 70
     1
  9
$MAXACTVP
 70
    64
  9
$PINSBASE
 10
0.0
 20
0.0
 30
0.0
  9
$PLIMCHECK
 70
     0
  9
$PEXTMIN
 10
1.000000000000000E+20
 20
1.000000000000000E+20
 30
1.000000000000000E+20
  9
$PEXTMAX
 10
-1.000000000000000E+20
 20
-1.000000000000000E+20
 30
-1.000000000000000E+20
  9
$PLIMMIN
 10
0.0
 20
0.0
  9
$PLIMMAX
 10
12.0
 20
9.0
  9
$UNITMODE
 70
     0
  9
$VISRETAIN
 70
     1
  9
$PLINEGEN
 70
     0
  9
$PSLTSCALE
 70
     1
  9
$TREEDEPTH
 70
  3020
  9
$PICKSTYLE
 70
     1
  9
$CMLSTYLE
  2
STANDARD
  9
$CMLJUST
 70
     0
  9
$CMLSCALE
 40
1.0
  9
$PROXYGRAPHICS
 70
     1
  9
$MEASUREMENT
 70
     0
  0
ENDSEC
  0
SECTION
  2
CLASSES
  0
CLASS
  1
ACDBDICTIONARYWDFLT
  2
AcDbDictionaryWithDefault
  3
ObjectDBX Classes
 90
        0
280
     0
281
     0
  0
CLASS
  1
VISUALSTYLE
  2
AcDbVisualStyle
  3
ObjectDBX Classes
 90
     4095
280
     0
281
     0
  0
CLASS
  1
MATERIAL
  2
AcDbMaterial
  3
ObjectDBX Classes
 90
     1153
280
     0
281
     0
  0
CLASS
  1
SCALE
  2
AcDbScale
  3
ObjectDBX Classes
 90
     1153
280
     0
281
     0
  0
CLASS
  1
TABLESTYLE
  2
AcDbTableStyle
  3
ObjectDBX Classes
 90
     4095
280
     0
281
     0
  0
CLASS
  1
MLEADERSTYLE
  2
AcDbMLeaderStyle
  3
ACDB_MLEADERSTYLE_CLASS
 90
     4095
280
     0
281
     0
  0
CLASS
  1
SUN
  2
AcDbSun
  3
SCENEOE
 90
     1153
280
     0
281
     0
  0
CLASS
  1
SORTENTSTABLE
  2
AcDbSortentsTable
  3
ObjectDBX Classes
 90
        0
280
     0
281
     0
  0
CLASS
  1
DICTIONARYVAR
  2
AcDbDictionaryVar
  3
ObjectDBX Classes
 90
        0
280
     0
281
     0
  0
CLASS
  1
XRECORD
  2
AcDbXrecord
  3
ObjectDBX Classes
 90
        0
280
     0
281
     0
  0
CLASS
  1
LWPOLYLINE
  2
AcDbPolyline
  3
ObjectDBX Classes
 90
        0
280
     0
281
     1
  0
CLASS
  1
HATCH
  2
AcDbHatch
  3
ObjectDBX Classes
 90
        0
280
     0
281
     1
  0
CLASS
  1
ACDBPLACEHOLDER
  2
AcDbPlaceHolder
  3
ObjectDBX Classes
 90
        0
280
     0
281
     0
  0
CLASS
  1
LAYOUT
  2
AcDbLayout
  3
ObjectDBX Classes
 90
        0
280
     0
281
     0
  0
ENDSEC
  0
SECTION
  2
TABLES
  0
TABLE
  2
VPORT
  5
8
102
{ACAD_XDICTIONARY
360
100005DC
102
}
330
0
100
AcDbSymbolTable
 70
     1
  0
VPORT
  5
29
330
8
100
AcDbSymbolTableRecord
100
AcDbViewportTableRecord
  2
*ACTIVE
 70
     0
 10
0.0
 20
0.0
 11
1.0
 21
1.0
 12
10.42990654205607
 22
4.5
 13
0.0
 23
0.0
 14
0.5
 24
0.5
 15
0.5
 25
0.5
 16
0.0
 26
0.0
 36
1.0
 17
0.0
 27
0.0
 37
0.0
 40
9.0
 41
1.972972972850329
 42
50.0
 43
0.0
 44
0.0
 50
0.0
 51
0.0
 71
     0
 72
   100
 73
     1
 74
     3
 75
     0
 76
     0
 77
     0
 78
     0
  0
ENDTAB
  0
TABLE
  2
LTYPE
  5
5
330
0
100
AcDbSymbolTable
 70
     6
  0
LTYPE
  5
14
330
5
100
AcDbSymbolTableRecord
100
AcDbLinetypeTableRecord
  2
BYBLOCK
 70
     0
  3

 72
    65
 73
     0
 40
0.0
  0
LTYPE
  5
15
330
5
100
AcDbSymbolTableRecord
100
AcDbLinetypeTableRecord
  2
BYLAYER
 70
     0
  3

 72
    65
 73
     0
 40
0.0
  0
LTYPE
  5
16
330
5
100
AcDbSymbolTableRecord
100
AcDbLinetypeTableRecord
  2
CONTINUOUS
 70
     0
  3
Solid line
 72
    65
 73
     0
 40
0.0
  0
LTYPE
  5
10000024
330
5
100
AcDbSymbolTableRecord
100
AcDbLinetypeTableRecord
  2
ONS_PHANTOM
 70
     0
  3
Onshape Phantom line ______ __ __ ______
 72
    65
 73
     6
 40
1.275
 49
0.75
 74
     0
 49
-0.075
 74
     0
 49
0.15
 74
     0
 49
-0.075
 74
     0
 49
0.15
 74
     0
 49
-0.075
 74
     0
  0
LTYPE
  5
10000025
330
5
100
AcDbSymbolTableRecord
100
AcDbLinetypeTableRecord
  2
CENTER
 70
     0
  3
Center line ____ _ ____ _ ____ _
 72
    65
 73
     4
 40
0.7199999999999999
 49
0.45
 74
     0
 49
-0.09
 74
     0
 49
0.09
 74
     0
 49
-0.09
 74
     0
  0
LTYPE
  5
10000026
330
5
100
AcDbSymbolTableRecord
100
AcDbLinetypeTableRecord
  2
DASHED
 70
     0
  3
Dashed line __ __ __ __ __
 72
    65
 73
     2
 40
0.75
 49
0.5
 74
     0
 49
-0.25
 74
     0
  0
LTYPE
  5
10000027
330
5
100
AcDbSymbolTableRecord
100
AcDbLinetypeTableRecord
  2
ONS_DASHDOT
 70
     0
  3
Onshape Dashed with Dot _ . ____ . ____
 72
    65
 73
     4
 40
0.71
 49
0.5
 74
     0
 49
-0.1
 74
     0
 49
0.01
 74
     0
 49
-0.1
 74
     0
  0
LTYPE
  5
10000028
330
5
100
AcDbSymbolTableRecord
100
AcDbLinetypeTableRecord
  2
HIDDEN
 70
     0
  3
Hidden line ____ ____ ____ ____ 
 72
    65
 73
     2
 40
0.15
 49
0.1
 74
     0
 49
-0.05
 74
     0
  0
ENDTAB
  0
TABLE
  2
LAYER
  5
2
330
0
100
AcDbSymbolTable
 70
    32
  0
LAYER
  5
10
330
2
100
AcDbSymbolTableRecord
100
AcDbLayerTableRecord
  2
0
 70
     0
 62
     7
  6
CONTINUOUS
  0
LAYER
  5
10000029
330
2
100
AcDbSymbolTableRecord
100
AcDbLayerTableRecord
  2
SECTION_CUTTING_LINE
 70
     0
 62
     7
  6
ONS_PHANTOM
  0
LAYER
  5
1000002A
330
2
100
AcDbSymbolTableRecord
100
AcDbLayerTableRecord
  2
DETAIL_VIEW_BORDER
 70
     0
 62
     7
  6
CONTINUOUS
  0
LAYER
  5
1000002B
330
2
100
AcDbSymbolTableRecord
100
AcDbLayerTableRecord
  2
DETAIL_VIEW_PARENT_BORDER
 70
     0
 62
     7
  6
ONS_PHANTOM
  0
LAYER
  5
1000002C
330
2
100
AcDbSymbolTableRecord
100
AcDbLayerTableRecord
  2
TEXT
 70
     0
 62
     7
  6
CONTINUOUS
  0
LAYER
  5
1000002D
330
2
100
AcDbSymbolTableRecord
100
AcDbLayerTableRecord
  2
SKETCHED_GEOMETRY
 70
     0
 62
    -7
  6
CONTINUOUS
  0
LAYER
  5
1000002E
330
2
100
AcDbSymbolTableRecord
100
AcDbLayerTableRecord
  2
CENTERLINES
 70
     0
 62
    -7
  6
CENTER
  0
LAYER
  5
1000002F
330
2
100
AcDbSymbolTableRecord
100
AcDbLayerTableRecord
  2
CENTERMARKS
 70
     0
 62
    -7
  6
CONTINUOUS
  0
LAYER
  5
10000030
330
2
100
AcDbSymbolTableRecord
100
AcDbLayerTableRecord
  2
TABLES
 70
     0
 62
     7
  6
CONTINUOUS
  0
LAYER
  5
10000031
330
2
100
AcDbSymbolTableRecord
100
AcDbLayerTableRecord
  2
IMAGES
 70
     0
 62
    -7
  6
CONTINUOUS
  0
LAYER
  5
10000032
330
2
100
AcDbSymbolTableRecord
100
AcDbLayerTableRecord
  2
ANNOTATION_LINES
 70
     0
 62
    -7
  6
CONTINUOUS
  0
LAYER
  5
10000033
330
2
100
AcDbSymbolTableRecord
100
AcDbLayerTableRecord
  2
ANNOTATION_TEXT
 70
     0
 62
    -7
  6
CONTINUOUS
  0
LAYER
  5
10000034
330
2
100
AcDbSymbolTableRecord
100
AcDbLayerTableRecord
  2
SIDE_THREAD_SYMBOLS
 70
     0
 62
     7
  6
HIDDEN
  0
LAYER
  5
10000035
330
2
100
AcDbSymbolTableRecord
100
AcDbLayerTableRecord
  2
SIDE_THREAD_SYMBOLS_HIDDEN
 70
     0
 62
    -7
  6
HIDDEN
  0
LAYER
  5
10000036
330
2
100
AcDbSymbolTableRecord
100
AcDbLayerTableRecord
  2
SURFACE_THREAD_SYMBOLS
 70
     0
 62
     7
  6
HIDDEN
  0
LAYER
  5
10000037
330
2
100
AcDbSymbolTableRecord
100
AcDbLayerTableRecord
  2
SURFACE_THREAD_SYMBOLS_ON_
 70
     0
 62
     7
  6
HIDDEN
  0
LAYER
  5
10000038
330
2
100
AcDbSymbolTableRecord
100
AcDbLayerTableRecord
  2
SURFACE_THREAD_SYMBOLS_HID
 70
     0
 62
    -7
  6
HIDDEN
  0
LAYER
  5
10000039
330
2
100
AcDbSymbolTableRecord
100
AcDbLayerTableRecord
  2
BLIND_THREAD_SYMBOLS
 70
     0
 62
     7
  6
CONTINUOUS
  0
LAYER
  5
1000003A
330
2
100
AcDbSymbolTableRecord
100
AcDbLayerTableRecord
  2
BLIND_THREAD_SYMBOLS_HIDDE
 70
     0
 62
    -7
  6
HIDDEN
  0
LAYER
  5
1000003B
330
2
100
AcDbSymbolTableRecord
100
AcDbLayerTableRecord
  2
EXPLODE_LINES
 70
     0
 62
     7
  6
CONTINUOUS
  0
LAYER
  5
1000003C
330
2
100
AcDbSymbolTableRecord
100
AcDbLayerTableRecord
  2
BREAK_LINES
 70
     0
 62
    -7
  6
CONTINUOUS
  0
LAYER
  5
1000003D
330
2
100
AcDbSymbolTableRecord
100
AcDbLayerTableRecord
  2
SHEETMETAL_BEND_LINES_UP
 70
     0
 62
    -7
  6
CENTER
  0
LAYER
  5
1000003E
330
2
100
AcDbSymbolTableRecord
100
AcDbLayerTableRecord
  2
SHEETMETAL_BEND_LINES_DOWN
 70
     0
 62
    -7
  6
CENTER
  0
LAYER
  5
1000003F
330
2
100
AcDbSymbolTableRecord
100
AcDbLayerTableRecord
  2
SHEETMETAL_BEND_TANGENT_LI
 70
     0
 62
    -7
  6
CONTINUOUS
  0
LAYER
  5
10000040
330
2
100
AcDbSymbolTableRecord
100
AcDbLayerTableRecord
  2
SHEETMETAL_CUT_LINES
 70
     0
 62
     7
  6
CONTINUOUS
  0
LAYER
  5
10000041
330
2
100
AcDbSymbolTableRecord
100
AcDbLayerTableRecord
  2
HIDDEN
 70
     0
 62
    -7
  6
HIDDEN
  0
LAYER
  5
10000042
330
2
100
AcDbSymbolTableRecord
100
AcDbLayerTableRecord
  2
VISIBLE
 70
     0
 62
     7
  6
CONTINUOUS
  0
LAYER
  5
10000043
330
2
100
AcDbSymbolTableRecord
100
AcDbLayerTableRecord
  2
TANGENT_LINES
 70
     0
 62
    -7
  6
CONTINUOUS
  0
LAYER
  5
10000044
330
2
100
AcDbSymbolTableRecord
100
AcDbLayerTableRecord
  2
TANGENT_HIDDEN
 70
     0
 62
    -7
  6
HIDDEN
  0
LAYER
  5
10000045
330
2
100
AcDbSymbolTableRecord
100
AcDbLayerTableRecord
  2
INVISIBLE_LINES
 70
     0
 62
    -7
  6
CONTINUOUS
  0
LAYER
  5
10000046
330
2
100
AcDbSymbolTableRecord
100
AcDbLayerTableRecord
  2
VIEW_HATCHES
 70
     0
 62
    -7
  6
CONTINUOUS
  0
LAYER
  5
10000047
330
2
100
AcDbSymbolTableRecord
100
AcDbLayerTableRecord
  2
SECTION_JOG_LINES
 70
     0
 62
    -7
  6
CONTINUOUS
  0
ENDTAB
  0
TABLE
  2
STYLE
  5
3
330
0
100
AcDbSymbolTable
 70
     2
  0
STYLE
  5
11
330
3
100
AcDbSymbolTableRecord
100
AcDbTextStyleTableRecord
  2
STANDARD
 70
     0
 40
0.0
 41
1.0
 50
0.0
 71
     0
 42
0.2
  3
txt
  4

  0
STYLE
  5
10000004
330
3
100
AcDbSymbolTableRecord
100
AcDbTextStyleTableRecord
  2
TTFSTYLE
 70
     0
 40
0.0
 41
1.0
 50
0.0
 71
     0
 42
0.2
  3
Verdana.ttf
  4

1001
ACAD
1000
Verdana
1071
       34
  0
ENDTAB
  0
TABLE
  2
VIEW
  5
6
330
0
100
AcDbSymbolTable
 70
     0
  0
ENDTAB
  0
TABLE
  2
UCS
  5
7
330
0
100
AcDbSymbolTable
 70
     0
  0
ENDTAB
  0
TABLE
  2
APPID
  5
9
330
0
100
AcDbSymbolTable
 70
     2
  0
APPID
  5
12
330
9
100
AcDbSymbolTableRecord
100
AcDbRegAppTableRecord
  2
ACAD
 70
     0
  0
APPID
  5
100005E6
330
9
100
AcDbSymbolTableRecord
100
AcDbRegAppTableRecord
  2
ACAD_MLEADERVER
 70
     0
  0
ENDTAB
  0
TABLE
  2
DIMSTYLE
  5
A
330
0
100
AcDbSymbolTable
 70
     1
  0
DIMSTYLE
105
27
330
A
100
AcDbSymbolTableRecord
100
AcDbDimStyleTableRecord
  2
STANDARD
 70
     0
  3

  4

  5

  6

  7

 40
1.0
 41
0.18
 42
0.0625
 43
0.38
 44
0.18
 45
0.0
 46
0.0
 47
0.0
 48
0.0
140
0.18
141
0.09
142
0.0
143
25.4
144
1.0
145
0.0
146
1.0
147
0.09
 71
     0
 72
     0
 73
     1
 74
     1
 75
     0
 76
     0
 77
     0
 78
     0
170
     0
171
     2
172
     0
173
     0
174
     0
175
     0
176
     0
177
     0
178
     0
270
     2
271
     4
272
     4
273
     2
274
     2
340
11
275
     0
280
     0
281
     0
282
     0
283
     1
284
     0
285
     0
286
     0
287
     3
288
     0
  0
ENDTAB
  0
TABLE
  2
BLOCK_RECORD
  5
1
330
0
100
AcDbSymbolTable
 70
     0
  0
BLOCK_RECORD
  5
1F
102
{ACAD_XDICTIONARY
360
100005B1
102
}
330
1
100
AcDbSymbolTableRecord
100
AcDbBlockTableRecord
  2
*MODEL_SPACE
  0
BLOCK_RECORD
  5
1B
330
1
100
AcDbSymbolTableRecord
100
AcDbBlockTableRecord
  2
*PAPER_SPACE
  0
ENDTAB
  0
ENDSEC
  0
SECTION
  2
BLOCKS
  0
BLOCK
  5
20
330
1F
100
AcDbEntity
  8
0
100
AcDbBlockBegin
  2
*MODEL_SPACE
 70
     0
 10
0.0
 20
0.0
 30
0.0
  3
*MODEL_SPACE
  1

  0
ENDBLK
  5
21
330
1F
100
AcDbEntity
  8
0
100
AcDbBlockEnd
  0
BLOCK
  5
1C
330
1B
100
AcDbEntity
 67
     1
  8
0
100
AcDbBlockBegin
  2
*PAPER_SPACE
 70
     0
 10
0.0
 20
0.0
 30
0.0
  3
*PAPER_SPACE
  1

  0
ENDBLK
  5
1D
330
1B
100
AcDbEntity
 67
     1
  8
0
100
AcDbBlockEnd
  0
ENDSEC
  0
SECTION
  2
ENTITIES
  0
POLYLINE
  5
F4B0D
102
{ACAD_XDICTIONARY
360
1000004B
102
}
330
1F
100
AcDbEntity
  8
VISIBLE
100
AcDb3dPolyline
 66
     1
 10
0.0
 20
0.0
 30
0.0
 70
     8
  0
VERTEX
  5
10000048
330
F4B0D
100
AcDbEntity
  8
VISIBLE
100
AcDbVertex
100
AcDb3dPolylineVertex
 10
248.5076555086255
 20
1021.163726897498
 30
0.0
 70
    32
  0
VERTEX
  5
10000049
330
F4B0D
100
AcDbEntity
  8
VISIBLE
100
AcDbVertex
100
AcDb3dPolylineVertex
 10
247.8743917890815
 20
1021.602398816463
 30
0.0
 70
    32
  0
VERTEX
  5
1000004A
330
F4B0D
100
AcDbEntity
  8
VISIBLE
100
AcDbVertex
100
AcDb3dPolylineVertex
 10
247.2039601419025
 20
1021.707714892246
 30
0.0
 70
    32
  0
SEQEND
  5
1000004D
330
F4B0D
100
AcDbEntity
  8
VISIBLE
  0
POLYLINE
  5
F4B0E
102
{ACAD_XDICTIONARY
360
10000051
102
}
330
1F
100
AcDbEntity
  8
VISIBLE
100
AcDb3dPolyline
 66
     1
 10
0.0
 20
0.0
 30
0.0
 70
     8
  0
VERTEX
  5
1000004E
330
F4B0E
100
AcDbEntity
  8
VISIBLE
100
AcDbVertex
100
AcDb3dPolylineVertex
 10
248.9630630827725
 20
1019.598458759354
 30
0.0
 70
    32
  0
VERTEX
  5
1000004F
330
F4B0E
100
AcDbEntity
  8
VISIBLE
100
AcDbVertex
100
AcDb3dPolylineVertex
 10
248.82024726752
 20
1020.592613702142
 30
0.0
 70
    32
  0
VERTEX
  5
10000050
330
F4B0E
100
AcDbEntity
  8
VISIBLE
100
AcDbVertex
100
AcDb3dPolylineVertex
 10
248.5076555086255
 20
1021.163726897498
 30
0.0
 70
    32
  0
SEQEND
  5
10000053
330
F4B0E
100
AcDbEntity
  8
VISIBLE
  0
LINE
  5
F4B0F
102
{ACAD_XDICTIONARY
360
10000054
102
}
330
1F
100
AcDbEntity
  8
VISIBLE
100
AcDbLine
 10
245.2301799464004
 20
1019.598458759354
 30
0.0
 11
248.9630630827725
 21
1019.598458759354
 31
0.0
  0
POLYLINE
  5
F4B10
102
{ACAD_XDICTIONARY
360
10000059
102
}
330
1F
100
AcDbEntity
  8
VISIBLE
100
AcDb3dPolyline
 66
     1
 10
0.0
 20
0.0
 30
0.0
 70
     8
  0
VERTEX
  5
10000056
330
F4B10
100
AcDbEntity
  8
VISIBLE
100
AcDbVertex
100
AcDb3dPolylineVertex
 10
245.8335689290803
 20
1021.148095058569
 30
0.0
 70
    32
  0
VERTEX
  5
10000057
330
F4B10
100
AcDbEntity
  8
VISIBLE
100
AcDbVertex
100
AcDb3dPolylineVertex
 10
245.3921891587641
 20
1020.386348461099
 30
0.0
 70
    32
  0
VERTEX
  5
10000058
330
F4B10
100
AcDbEntity
  8
VISIBLE
100
AcDbVertex
100
AcDb3dPolylineVertex
 10
245.2301799464004
 20
1019.598458759354
 30
0.0
 70
    32
  0
SEQEND
  5
1000005B
330
F4B10
100
AcDbEntity
  8
VISIBLE
  0
POLYLINE
  5
F4B11
102
{ACAD_XDICTIONARY
360
1000005F
102
}
330
1F
100
AcDbEntity
  8
VISIBLE
100
AcDb3dPolyline
 66
     1
 10
0.0
 20
0.0
 30
0.0
 70
     8
  0
VERTEX
  5
1000005C
330
F4B11
100
AcDbEntity
  8
VISIBLE
100
AcDbVertex
100
AcDb3dPolylineVertex
 10
247.2039601419025
 20
1021.707714892246
 30
0.0
 70
    32
  0
VERTEX
  5
1000005D
330
F4B11
100
AcDbEntity
  8
VISIBLE
100
AcDbVertex
100
AcDb3dPolylineVertex
 10
246.3510336532304
 20
1021.532218112405
 30
0.0
 70
    32
  0
VERTEX
  5
1000005E
330
F4B11
100
AcDbEntity
  8
VISIBLE
100
AcDbVertex
100
AcDb3dPolylineVertex
 10
245.8335689290803
 20
1021.148095058569
 30
0.0
 70
    32
  0
SEQEND
  5
10000061
330
F4B11
100
AcDbEntity
  8
VISIBLE
  0
POLYLINE
  5
F4B12
102
{ACAD_XDICTIONARY
360
10000065
102
}
330
1F
100
AcDbEntity
  8
VISIBLE
100
AcDb3dPolyline
 66
     1
 10
0.0
 20
0.0
 30
0.0
 70
     8
  0
VERTEX
  5
10000062
330
F4B12
100
AcDbEntity
  8
VISIBLE
100
AcDbVertex
100
AcDb3dPolylineVertex
 10
248.7317118666155
 20
1015.321587628234
 30
0.0
 70
    32
  0
VERTEX
  5
10000063
330
F4B12
100
AcDbEntity
  8
VISIBLE
100
AcDbVertex
100
AcDb3dPolylineVertex
 10
248.0931258185527
 20
1015.234189391506
 30
0.0
 70
    32
  0
VERTEX
  5
10000064
330
F4B12
100
AcDbEntity
  8
VISIBLE
100
AcDbVertex
100
AcDb3dPolylineVertex
 10
247.4978387137778
 20
1015.213206878323
 30
0.0
 70
    32
  0
SEQEND
  5
10000067
330
F4B12
100
AcDbEntity
  8
VISIBLE
  0
POLYLINE
  5
F4B13
102
{ACAD_XDICTIONARY
360
1000006B
102
}
330
1F
100
AcDbEntity
  8
VISIBLE
100
AcDb3dPolyline
 66
     1
 10
0.0
 20
0.0
 30
0.0
 70
     8
  0
VERTEX
  5
10000068
330
F4B13
100
AcDbEntity
  8
VISIBLE
100
AcDbVertex
100
AcDb3dPolylineVertex
 10
249.8155193657296
 20
1015.675909310637
 30
0.0
 70
    32
  0
VERTEX
  5
10000069
330
F4B13
100
AcDbEntity
  8
VISIBLE
100
AcDbVertex
100
AcDb3dPolylineVertex
 10
249.1931804257768
 20
1015.443594339504
 30
0.0
 70
    32
  0
VERTEX
  5
1000006A
330
F4B13
100
AcDbEntity
  8
VISIBLE
100
AcDbVertex
100
AcDb3dPolylineVertex
 10
248.7317118666155
 20
1015.321587628234
 30
0.0
 70
    32
  0
SEQEND
  5
1000006D
330
F4B13
100
AcDbEntity
  8
VISIBLE
  0
LINE
  5
F4B14
102
{ACAD_XDICTIONARY
360
1000006E
102
}
330
1F
100
AcDbEntity
  8
VISIBLE
100
AcDbLine
 10
249.8155193657296
 20
1016.640914833887
 30
0.0
 11
249.8155193657296
 21
1015.675909310637
 31
0.0
  0
POLYLINE
  5
F4B15
102
{ACAD_XDICTIONARY
360
10000073
102
}
330
1F
100
AcDbEntity
  8
VISIBLE
100
AcDb3dPolyline
 66
     1
 10
0.0
 20
0.0
 30
0.0
 70
     8
  0
VERTEX
  5
10000070
330
F4B15
100
AcDbEntity
  8
VISIBLE
100
AcDbVertex
100
AcDb3dPolylineVertex
 10
247.5374393723993
 20
1016.159454194857
 30
0.0
 70
    32
  0
VERTEX
  5
10000071
330
F4B15
100
AcDbEntity
  8
VISIBLE
100
AcDbVertex
100
AcDb3dPolylineVertex
 10
248.8198404228588
 20
1016.310440251257
 30
0.0
 70
    32
  0
VERTEX
  5
10000072
330
F4B15
100
AcDbEntity
  8
VISIBLE
100
AcDbVertex
100
AcDb3dPolylineVertex
 10
249.8155193657296
 20
1016.640914833887
 30
0.0
 70
    32
  0
SEQEND
  5
10000075
330
F4B15
100
AcDbEntity
  8
VISIBLE
  0
POLYLINE
  5
F4B16
102
{ACAD_XDICTIONARY
360
10000079
102
}
330
1F
100
AcDbEntity
  8
VISIBLE
100
AcDb3dPolyline
 66
     1
 10
0.0
 20
0.0
 30
0.0
 70
     8
  0
VERTEX
  5
10000076
330
F4B16
100
AcDbEntity
  8
VISIBLE
100
AcDbVertex
100
AcDb3dPolylineVertex
 10
245.8408637872474
 20
1016.810780816921
 30
0.0
 70
    32
  0
VERTEX
  5
10000077
330
F4B16
100
AcDbEntity
  8
VISIBLE
100
AcDbVertex
100
AcDb3dPolylineVertex
 10
246.6697464234007
 20
1016.285551028889
 30
0.0
 70
    32
  0
VERTEX
  5
10000078
330
F4B16
100
AcDbEntity
  8
VISIBLE
100
AcDbVertex
100
AcDb3dPolylineVertex
 10
247.5374393723993
 20
1016.159454194857
 30
0.0
 70
    32
  0
SEQEND
  5
1000007B
330
F4B16
100
AcDbEntity
  8
VISIBLE
  0
POLYLINE
  5
F4B17
102
{ACAD_XDICTIONARY
360
1000007F
102
}
330
1F
100
AcDbEntity
  8
VISIBLE
100
AcDb3dPolyline
 66
     1
 10
0.0
 20
0.0
 30
0.0
 70
     8
  0
VERTEX
  5
1000007C
330
F4B17
100
AcDbEntity
  8
VISIBLE
100
AcDbVertex
100
AcDb3dPolylineVertex
 10
245.2051690041131
 20
1018.718907288919
 30
0.0
 70
    32
  0
VERTEX
  5
1000007D
330
F4B17
100
AcDbEntity
  8
VISIBLE
100
AcDbVertex
100
AcDb3dPolylineVertex
 10
245.4209567445829
 20
1017.501167861253
 30
0.0
 70
    32
  0
VERTEX
  5
1000007E
330
F4B17
100
AcDbEntity
  8
VISIBLE
100
AcDbVertex
100
AcDb3dPolylineVertex
 10
245.8408637872474
 20
1016.810780816921
 30
0.0
 70
    32
  0
SEQEND
  5
10000081
330
F4B17
100
AcDbEntity
  8
VISIBLE
  0
LINE
  5
F4B18
102
{ACAD_XDICTIONARY
360
10000082
102
}
330
1F
100
AcDbEntity
  8
VISIBLE
100
AcDbLine
 10
250.1219034087485
 20
1018.718907288919
 30
0.0
 11
245.2051690041131
 21
1018.718907288919
 31
0.0
  0
LINE
  5
F4B19
102
{ACAD_XDICTIONARY
360
10000084
102
}
330
1F
100
AcDbEntity
  8
VISIBLE
100
AcDbLine
 10
250.1219034087485
 20
1019.402539711437
 30
0.0
 11
250.1219034087485
 21
1018.718907288919
 31
0.0
  0
POLYLINE
  5
F4B1A
102
{ACAD_XDICTIONARY
360
10000089
102
}
330
1F
100
AcDbEntity
  8
VISIBLE
100
AcDb3dPolyline
 66
     1
 10
0.0
 20
0.0
 30
0.0
 70
     8
  0
VERTEX
  5
10000086
330
F4B1A
100
AcDbEntity
  8
VISIBLE
100
AcDbVertex
100
AcDb3dPolylineVertex
 10
249.3403114622719
 20
1021.731683711938
 30
0.0
 70
    32
  0
VERTEX
  5
10000087
330
F4B1A
100
AcDbEntity
  8
VISIBLE
100
AcDbVertex
100
AcDb3dPolylineVertex
 10
249.9705872079106
 20
1020.566280514706
 30
0.0
 70
    32
  0
VERTEX
  5
10000088
330
F4B1A
100
AcDbEntity
  8
VISIBLE
100
AcDbVertex
100
AcDb3dPolylineVertex
 10
250.1219034087485
 20
1019.402539711437
 30
0.0
 70
    32
  0
SEQEND
  5
1000008B
330
F4B1A
100
AcDbEntity
  8
VISIBLE
  0
POLYLINE
  5
F4B1B
102
{ACAD_XDICTIONARY
360
1000008F
102
}
330
1F
100
AcDbEntity
  8
VISIBLE
100
AcDb3dPolyline
 66
     1
 10
0.0
 20
0.0
 30
0.0
 70
     8
  0
VERTEX
  5
1000008C
330
F4B1B
100
AcDbEntity
  8
VISIBLE
100
AcDbVertex
100
AcDb3dPolylineVertex
 10
247.2185498582368
 20
1022.614361550159
 30
0.0
 70
    32
  0
VERTEX
  5
1000008D
330
F4B1B
100
AcDbEntity
  8
VISIBLE
100
AcDbVertex
100
AcDb3dPolylineVertex
 10
248.5443699045071
 20
1022.337553780093
 30
0.0
 70
    32
  0
VERTEX
  5
1000008E
330
F4B1B
100
AcDbEntity
  8
VISIBLE
100
AcDbVertex
100
AcDb3dPolylineVertex
 10
249.3403114622719
 20
1021.731683711938
 30
0.0
 70
    32
  0
SEQEND
  5
10000091
330
F4B1B
100
AcDbEntity
  8
VISIBLE
  0
POLYLINE
  5
F4B1C
102
{ACAD_XDICTIONARY
360
10000095
102
}
330
1F
100
AcDbEntity
  8
VISIBLE
100
AcDb3dPolyline
 66
     1
 10
0.0
 20
0.0
 30
0.0
 70
     8
  0
VERTEX
  5
10000092
330
F4B1C
100
AcDbEntity
  8
VISIBLE
100
AcDbVertex
100
AcDb3dPolylineVertex
 10
244.9342171293345
 20
1021.598292019739
 30
0.0
 70
    32
  0
VERTEX
  5
10000093
330
F4B1C
100
AcDbEntity
  8
VISIBLE
100
AcDbVertex
100
AcDb3dPolylineVertex
 10
246.0696472133296
 20
1022.417650489069
 30
0.0
 70
    32
  0
VERTEX
  5
10000094
330
F4B1C
100
AcDbEntity
  8
VISIBLE
100
AcDbVertex
100
AcDb3dPolylineVertex
 10
247.2185498582368
 20
1022.614361550159
 30
0.0
 70
    32
  0
SEQEND
  5
10000097
330
F4B1C
100
AcDbEntity
  8
VISIBLE
  0
POLYLINE
  5
F4B1D
102
{ACAD_XDICTIONARY
360
1000009B
102
}
330
1F
100
AcDbEntity
  8
VISIBLE
100
AcDb3dPolyline
 66
     1
 10
0.0
 20
0.0
 30
0.0
 70
     8
  0
VERTEX
  5
10000098
330
F4B1D
100
AcDbEntity
  8
VISIBLE
100
AcDbVertex
100
AcDb3dPolylineVertex
 10
244.0838450915681
 20
1018.854383226309
 30
0.0
 70
    32
  0
VERTEX
  5
10000099
330
F4B1D
100
AcDbEntity
  8
VISIBLE
100
AcDbVertex
100
AcDb3dPolylineVertex
 10
244.3505217626116
 20
1020.56635221274
 30
0.0
 70
    32
  0
VERTEX
  5
1000009A
330
F4B1D
100
AcDbEntity
  8
VISIBLE
100
AcDbVertex
100
AcDb3dPolylineVertex
 10
244.9342171293345
 20
1021.598292019739
 30
0.0
 70
    32
  0
SEQEND
  5
1000009D
330
F4B1D
100
AcDbEntity
  8
VISIBLE
  0
POLYLINE
  5
F4B1E
102
{ACAD_XDICTIONARY
360
100000A1
102
}
330
1F
100
AcDbEntity
  8
VISIBLE
100
AcDb3dPolyline
 66
     1
 10
0.0
 20
0.0
 30
0.0
 70
     8
  0
VERTEX
  5
1000009E
330
F4B1E
100
AcDbEntity
  8
VISIBLE
100
AcDbVertex
100
AcDb3dPolylineVertex
 10
244.9998708528386
 20
1016.178212401573
 30
0.0
 70
    32
  0
VERTEX
  5
1000009F
330
F4B1E
100
AcDbEntity
  8
VISIBLE
100
AcDbVertex
100
AcDb3dPolylineVertex
 10
244.26118767895
 20
1017.493014294067
 30
0.0
 70
    32
  0
VERTEX
  5
100000A0
330
F4B1E
100
AcDbEntity
  8
VISIBLE
100
AcDbVertex
100
AcDb3dPolylineVertex
 10
244.0838450915681
 20
1018.854383226309
 30
0.0
 70
    32
  0
SEQEND
  5
100000A3
330
F4B1E
100
AcDbEntity
  8
VISIBLE
  0
POLYLINE
  5
F4B1F
102
{ACAD_XDICTIONARY
360
100000A7
102
}
330
1F
100
AcDbEntity
  8
VISIBLE
100
AcDb3dPolyline
 66
     1
 10
0.0
 20
0.0
 30
0.0
 70
     8
  0
VERTEX
  5
100000A4
330
F4B1F
100
AcDbEntity
  8
VISIBLE
100
AcDbVertex
100
AcDb3dPolylineVertex
 10
247.4978387137778
 20
1015.213206878323
 30
0.0
 70
    32
  0
VERTEX
  5
100000A5
330
F4B1F
100
AcDbEntity
  8
VISIBLE
100
AcDbVertex
100
AcDb3dPolylineVertex
 10
245.9348949258706
 20
1015.515832610414
 30
0.0
 70
    32
  0
VERTEX
  5
100000A6
330
F4B1F
100
AcDbEntity
  8
VISIBLE
100
AcDbVertex
100
AcDb3dPolylineVertex
 10
244.9998708528386
 20
1016.178212401573
 30
0.0
 70
    32
  0
SEQEND
  5
100000A9
330
F4B1F
100
AcDbEntity
  8
VISIBLE
  0
POLYLINE
  5
F4B20
102
{ACAD_XDICTIONARY
360
100000AD
102
}
330
1F
100
AcDbEntity
  8
VISIBLE
100
AcDb3dPolyline
 66
     1
 10
0.0
 20
0.0
 30
0.0
 70
     8
  0
VERTEX
  5
100000AA
330
F4B20
100
AcDbEntity
  8
VISIBLE
100
AcDbVertex
100
AcDb3dPolylineVertex
 10
241.0616895651919
 20
1022.236071048064
 30
0.0
 70
    32
  0
VERTEX
  5
100000AB
330
F4B20
100
AcDbEntity
  8
VISIBLE
100
AcDbVertex
100
AcDb3dPolylineVertex
 10
241.7242727786812
 20
1022.541124508953
 30
0.0
 70
    32
  0
VERTEX
  5
100000AC
330
F4B20
100
AcDbEntity
  8
VISIBLE
100
AcDbVertex
100
AcDb3dPolylineVertex
 10
242.293478472839
 20
1022.614361550159
 30
0.0
 70
    32
  0
SEQEND
  5
100000AF
330
F4B20
100
AcDbEntity
  8
VISIBLE
  0
POLYLINE
  5
F4B21
102
{ACAD_XDICTIONARY
360
100000B3
102
}
330
1F
100
AcDbEntity
  8
VISIBLE
100
AcDb3dPolyline
 66
     1
 10
0.0
 20
0.0
 30
0.0
 70
     8
  0
VERTEX
  5
100000B0
330
F4B21
100
AcDbEntity
  8
VISIBLE
100
AcDbVertex
100
AcDb3dPolylineVertex
 10
240.1050210227046
 20
1021.161642652307
 30
0.0
 70
    32
  0
VERTEX
  5
100000B1
330
F4B21
100
AcDbEntity
  8
VISIBLE
100
AcDbVertex
100
AcDb3dPolylineVertex
 10
240.6001843233153
 20
1021.841640151213
 30
0.0
 70
    32
  0
VERTEX
  5
100000B2
330
F4B21
100
AcDbEntity
  8
VISIBLE
100
AcDbVertex
100
AcDb3dPolylineVertex
 10
241.0616895651919
 20
1022.236071048064
 30
0.0
 70
    32
  0
SEQEND
  5
100000B5
330
F4B21
100
AcDbEntity
  8
VISIBLE
  0
LINE
  5
F4B22
102
{ACAD_XDICTIONARY
360
100000B6
102
}
330
1F
100
AcDbEntity
  8
VISIBLE
100
AcDbLine
 10
240.0529148929395
 20
1021.161642652307
 30
0.0
 11
240.1050210227046
 21
1021.161642652307
 31
0.0
  0
LINE
  5
F4B23
102
{ACAD_XDICTIONARY
360
100000B8
102
}
330
1F
100
AcDbEntity
  8
VISIBLE
100
AcDbLine
 10
239.9278601815032
 20
1022.48305410315
 30
0.0
 11
240.0529148929395
 21
1021.161642652307
 31
0.0
  0
LINE
  5
F4B24
102
{ACAD_XDICTIONARY
360
100000BA
102
}
330
1F
100
AcDbEntity
  8
VISIBLE
100
AcDbLine
 10
239.0358032399246
 20
1022.48305410315
 30
0.0
 11
239.9278601815033
 21
1022.48305410315
 31
0.0
  0
LINE
  5
F4B25
102
{ACAD_XDICTIONARY
360
100000BC
102
}
330
1F
100
AcDbEntity
  8
VISIBLE
100
AcDbLine
 10
239.0358032399246
 20
1015.344514325331
 30
0.0
 11
239.0358032399246
 21
1022.483054103151
 31
0.0
  0
LINE
  5
F4B26
102
{ACAD_XDICTIONARY
360
100000BE
102
}
330
1F
100
AcDbEntity
  8
VISIBLE
100
AcDbLine
 10
240.1175264938482
 20
1015.344514325331
 30
0.0
 11
239.0358032399246
 21
1015.344514325331
 31
0.0
  0
LINE
  5
F4B27
102
{ACAD_XDICTIONARY
360
100000C0
102
}
330
1F
100
AcDbEntity
  8
VISIBLE
100
AcDbLine
 10
240.1175264938482
 20
1019.175356985662
 30
0.0
 11
240.1175264938482
 21
1015.344514325331
 31
0.0
  0
POLYLINE
  5
F4B28
102
{ACAD_XDICTIONARY
360
100000C5
102
}
330
1F
100
AcDbEntity
  8
VISIBLE
100
AcDb3dPolyline
 66
     1
 10
0.0
 20
0.0
 30
0.0
 70
     8
  0
VERTEX
  5
100000C2
330
F4B28
100
AcDbEntity
  8
VISIBLE
100
AcDbVertex
100
AcDb3dPolylineVertex
 10
240.7323788250765
 20
1020.927165068365
 30
0.0
 70
    32
  0
VERTEX
  5
100000C3
330
F4B28
100
AcDbEntity
  8
VISIBLE
100
AcDbVertex
100
AcDb3dPolylineVertex
 10
240.236561905174
 20
1020.031146393528
 30
0.0
 70
    32
  0
VERTEX
  5
100000C4
330
F4B28
100
AcDbEntity
  8
VISIBLE
100
AcDbVertex
100
AcDb3dPolylineVertex
 10
240.1175264938482
 20
1019.175356985662
 30
0.0
 70
    32
  0
SEQEND
  5
100000C7
330
F4B28
100
AcDbEntity
  8
VISIBLE
  0
POLYLINE
  5
F4B29
102
{ACAD_XDICTIONARY
360
100000CB
102
}
330
1F
100
AcDbEntity
  8
VISIBLE
100
AcDb3dPolyline
 66
     1
 10
0.0
 20
0.0
 30
0.0
 70
     8
  0
VERTEX
  5
100000C8
330
F4B29
100
AcDbEntity
  8
VISIBLE
100
AcDbVertex
100
AcDb3dPolylineVertex
 10
242.2142771555961
 20
1021.630597820193
 30
0.0
 70
    32
  0
VERTEX
  5
100000C9
330
F4B29
100
AcDbEntity
  8
VISIBLE
100
AcDbVertex
100
AcDb3dPolylineVertex
 10
241.3222735706944
 20
1021.41000130922
 30
0.0
 70
    32
  0
VERTEX
  5
100000CA
330
F4B29
100
AcDbEntity
  8
VISIBLE
100
AcDbVertex
100
AcDb3dPolylineVertex
 10
240.7323788250765
 20
1020.927165068365
 30
0.0
 70
    32
  0
SEQEND
  5
100000CD
330
F4B29
100
AcDbEntity
  8
VISIBLE
  0
POLYLINE
  5
F4B2A
102
{ACAD_XDICTIONARY
360
100000D1
102
}
330
1F
100
AcDbEntity
  8
VISIBLE
100
AcDb3dPolyline
 66
     1
 10
0.0
 20
0.0
 30
0.0
 70
     8
  0
VERTEX
  5
100000CE
330
F4B2A
100
AcDbEntity
  8
VISIBLE
100
AcDbVertex
100
AcDb3dPolylineVertex
 10
242.9958691020726
 20
1021.532638296235
 30
0.0
 70
    32
  0
VERTEX
  5
100000CF
330
F4B2A
100
AcDbEntity
  8
VISIBLE
100
AcDbVertex
100
AcDb3dPolylineVertex
 10
242.5330132693125
 20
1021.611632856355
 30
0.0
 70
    32
  0
VERTEX
  5
100000D0
330
F4B2A
100
AcDbEntity
  8
VISIBLE
100
AcDbVertex
100
AcDb3dPolylineVertex
 10
242.2142771555961
 20
1021.630597820193
 30
0.0
 70
    32
  0
SEQEND
  5
100000D3
330
F4B2A
100
AcDbEntity
  8
VISIBLE
  0
LINE
  5
F4B2B
102
{ACAD_XDICTIONARY
360
100000D4
102
}
330
1F
100
AcDbEntity
  8
VISIBLE
100
AcDbLine
 10
243.1459347557962
 20
1022.535160232916
 30
0.0
 11
242.9958691020726
 21
1021.532638296235
 31
0.0
  0
POLYLINE
  5
F4B2C
102
{ACAD_XDICTIONARY
360
100000D9
102
}
330
1F
100
AcDbEntity
  8
VISIBLE
100
AcDb3dPolyline
 66
     1
 10
0.0
 20
0.0
 30
0.0
 70
     8
  0
VERTEX
  5
100000D6
330
F4B2C
100
AcDbEntity
  8
VISIBLE
100
AcDbVertex
100
AcDb3dPolylineVertex
 10
242.293478472839
 20
1022.614361550159
 30
0.0
 70
    32
  0
VERTEX
  5
100000D7
330
F4B2C
100
AcDbEntity
  8
VISIBLE
100
AcDbVertex
100
AcDb3dPolylineVertex
 10
242.7949912179984
 20
1022.589524017071
 30
0.0
 70
    32
  0
VERTEX
  5
100000D8
330
F4B2C
100
AcDbEntity
  8
VISIBLE
100
AcDbVertex
100
AcDb3dPolylineVertex
 10
243.1459347557962
 20
1022.535160232916
 30
0.0
 70
    32
  0
SEQEND
  5
100000DB
330
F4B2C
100
AcDbEntity
  8
VISIBLE
  0
POLYLINE
  5
F4B2D
102
{ACAD_XDICTIONARY
360
100000DF
102
}
330
1F
100
AcDbEntity
  8
VISIBLE
100
AcDb3dPolyline
 66
     1
 10
0.0
 20
0.0
 30
0.0
 70
     8
  0
VERTEX
  5
100000DC
330
F4B2D
100
AcDbEntity
  8
VISIBLE
100
AcDbVertex
100
AcDb3dPolylineVertex
 10
232.5725589038609
 20
1016.412689985516
 30
0.0
 70
    32
  0
VERTEX
  5
100000DD
330
F4B2D
100
AcDbEntity
  8
VISIBLE
100
AcDbVertex
100
AcDb3dPolylineVertex
 10
233.0582914118332
 20
1016.166462260886
 30
0.0
 70
    32
  0
VERTEX
  5
100000DE
330
F4B2D
100
AcDbEntity
  8
VISIBLE
100
AcDbVertex
100
AcDb3dPolylineVertex
 10
233.5646596145885
 20
1016.107348065092
 30
0.0
 70
    32
  0
SEQEND
  5
100000E1
330
F4B2D
100
AcDbEntity
  8
VISIBLE
  0
POLYLINE
  5
F4B2E
102
{ACAD_XDICTIONARY
360
100000E5
102
}
330
1F
100
AcDbEntity
  8
VISIBLE
100
AcDb3dPolyline
 66
     1
 10
0.0
 20
0.0
 30
0.0
 70
     8
  0
VERTEX
  5
100000E2
330
F4B2E
100
AcDbEntity
  8
VISIBLE
100
AcDbVertex
100
AcDb3dPolylineVertex
 10
232.2182372214582
 20
1017.305789049689
 30
0.0
 70
    32
  0
VERTEX
  5
100000E3
330
F4B2E
100
AcDbEntity
  8
VISIBLE
100
AcDbVertex
100
AcDb3dPolylineVertex
 10
232.3293525010597
 20
1016.736066462724
 30
0.0
 70
    32
  0
VERTEX
  5
100000E4
330
F4B2E
100
AcDbEntity
  8
VISIBLE
100
AcDbVertex
100
AcDb3dPolylineVertex
 10
232.5725589038609
 20
1016.412689985516
 30
0.0
 70
    32
  0
SEQEND
  5
100000E7
330
F4B2E
100
AcDbEntity
  8
VISIBLE
  0
POLYLINE
  5
F4B2F
102
{ACAD_XDICTIONARY
360
100000EB
102
}
330
1F
100
AcDbEntity
  8
VISIBLE
100
AcDb3dPolyline
 66
     1
 10
0.0
 20
0.0
 30
0.0
 70
     8
  0
VERTEX
  5
100000E8
330
F4B2F
100
AcDbEntity
  8
VISIBLE
100
AcDbVertex
100
AcDb3dPolylineVertex
 10
232.7872361584932
 20
1018.409396878115
 30
0.0
 70
    32
  0
VERTEX
  5
100000E9
330
F4B2F
100
AcDbEntity
  8
VISIBLE
100
AcDbVertex
100
AcDb3dPolylineVertex
 10
232.3283954156682
 20
1017.888182180017
 30
0.0
 70
    32
  0
VERTEX
  5
100000EA
330
F4B2F
100
AcDbEntity
  8
VISIBLE
100
AcDbVertex
100
AcDb3dPolylineVertex
 10
232.2182372214582
 20
1017.305789049689
 30
0.0
 70
    32
  0
SEQEND
  5
100000ED
330
F4B2F
100
AcDbEntity
  8
VISIBLE
  0
POLYLINE
  5
F4B30
102
{ACAD_XDICTIONARY
360
100000F1
102
}
330
1F
100
AcDbEntity
  8
VISIBLE
100
AcDb3dPolyline
 66
     1
 10
0.0
 20
0.0
 30
0.0
 70
     8
  0
VERTEX
  5
100000EE
330
F4B30
100
AcDbEntity
  8
VISIBLE
100
AcDbVertex
100
AcDb3dPolylineVertex
 10
234.6463828685121
 20
1018.810614077306
 30
0.0
 70
    32
  0
VERTEX
  5
100000EF
330
F4B30
100
AcDbEntity
  8
VISIBLE
100
AcDbVertex
100
AcDb3dPolylineVertex
 10
233.4275696377237
 20
1018.662195810981
 30
0.0
 70
    32
  0
VERTEX
  5
100000F0
330
F4B30
100
AcDbEntity
  8
VISIBLE
100
AcDbVertex
100
AcDb3dPolylineVertex
 10
232.7872361584932
 20
1018.409396878115
 30
0.0
 70
    32
  0
SEQEND
  5
100000F3
330
F4B30
100
AcDbEntity
  8
VISIBLE
  0
LINE
  5
F4B31
102
{ACAD_XDICTIONARY
360
100000F4
102
}
330
1F
100
AcDbEntity
  8
VISIBLE
100
AcDbLine
 10
235.7281061224357
 20
1018.854383226308
 30
0.0
 11
234.6463828685122
 21
1018.810614077306
 31
0.0
  0
LINE
  5
F4B32
102
{ACAD_XDICTIONARY
360
100000F6
102
}
330
1F
100
AcDbEntity
  8
VISIBLE
100
AcDbLine
 10
235.7281061224357
 20
1018.210351462412
 30
0.0
 11
235.7281061224357
 21
1018.854383226309
 31
0.0
  0
POLYLINE
  5
F4B33
102
{ACAD_XDICTIONARY
360
100000FE
102
}
330
1F
100
AcDbEntity
  8
VISIBLE
100
AcDb3dPolyline
 66
     1
 10
0.0
 20
0.0
 30
0.0
 70
     8
  0
VERTEX
  5
100000FB
330
F4B33
100
AcDbEntity
  8
VISIBLE
100
AcDbVertex
100
AcDb3dPolylineVertex
 10
235.1518123272337
 20
1016.660715163198
 30
0.0
 70
    32
  0
VERTEX
  5
100000FC
330
F4B33
100
AcDbEntity
  8
VISIBLE
100
AcDbVertex
100
AcDb3dPolylineVertex
 10
235.6165356436846
 20
1017.419380412578
 30
0.0
 70
    32
  0
VERTEX
  5
100000FD
330
F4B33
100
AcDbEntity
  8
VISIBLE
100
AcDbVertex
100
AcDb3dPolylineVertex
 10
235.7281061224357
 20
1018.210351462412
 30
0.0
 70
    32
  0
SEQEND
  5
10000100
330
F4B33
100
AcDbEntity
  8
VISIBLE
  0
POLYLINE
  5
F4B34
102
{ACAD_XDICTIONARY
360
10000104
102
}
330
1F
100
AcDbEntity
  8
VISIBLE
100
AcDb3dPolyline
 66
     1
 10
0.0
 20
0.0
 30
0.0
 70
     8
  0
VERTEX
  5
10000101
330
F4B34
100
AcDbEntity
  8
VISIBLE
100
AcDbVertex
100
AcDb3dPolylineVertex
 10
233.5646596145885
 20
1016.107348065092
 30
0.0
 70
    32
  0
VERTEX
  5
10000102
330
F4B34
100
AcDbEntity
  8
VISIBLE
100
AcDbVertex
100
AcDb3dPolylineVertex
 10
234.56054197979
 20
1016.280883987058
 30
0.0
 70
    32
  0
VERTEX
  5
10000103
330
F4B34
100
AcDbEntity
  8
VISIBLE
100
AcDbVertex
100
AcDb3dPolylineVertex
 10
235.1518123272337
 20
1016.660715163198
 30
0.0
 70
    32
  0
SEQEND
  5
10000106
330
F4B34
100
AcDbEntity
  8
VISIBLE
  0
LINE
  5
F4B35
102
{ACAD_XDICTIONARY
360
10000107
102
}
330
1F
100
AcDbEntity
  8
VISIBLE
100
AcDbLine
 10
236.8098293763593
 20
1015.344514325331
 30
0.0
 11
236.0073949779767
 21
1015.344514325331
 31
0.0
  0
LINE
  5
F4B36
102
{ACAD_XDICTIONARY
360
10000109
102
}
330
1F
100
AcDbEntity
  8
VISIBLE
100
AcDbLine
 10
236.8098293763593
 20
1020.217479580964
 30
0.0
 11
236.8098293763593
 21
1015.344514325331
 31
0.0
  0
POLYLINE
  5
F4B37
102
{ACAD_XDICTIONARY
360
10000111
102
}
330
1F
100
AcDbEntity
  8
VISIBLE
100
AcDb3dPolyline
 66
     1
 10
0.0
 20
0.0
 30
0.0
 70
     8
  0
VERTEX
  5
1000010E
330
F4B37
100
AcDbEntity
  8
VISIBLE
100
AcDbVertex
100
AcDb3dPolylineVertex
 10
236.1939349225358
 20
1022.033899264575
 30
0.0
 70
    32
  0
VERTEX
  5
1000010F
330
F4B37
100
AcDbEntity
  8
VISIBLE
100
AcDbVertex
100
AcDb3dPolylineVertex
 10
236.6905922100991
 20
1021.185408049669
 30
0.0
 70
    32
  0
VERTEX
  5
10000110
330
F4B37
100
AcDbEntity
  8
VISIBLE
100
AcDbVertex
100
AcDb3dPolylineVertex
 10
236.8098293763593
 20
1020.217479580964
 30
0.0
 70
    32
  0
SEQEND
  5
10000113
330
F4B37
100
AcDbEntity
  8
VISIBLE
  0
POLYLINE
  5
F4B38
102
{ACAD_XDICTIONARY
360
10000117
102
}
330
1F
100
AcDbEntity
  8
VISIBLE
100
AcDb3dPolyline
 66
     1
 10
0.0
 20
0.0
 30
0.0
 70
     8
  0
VERTEX
  5
10000114
330
F4B38
100
AcDbEntity
  8
VISIBLE
100
AcDbVertex
100
AcDb3dPolylineVertex
 10
234.3024824120625
 20
1022.599771833824
 30
0.0
 70
    32
  0
VERTEX
  5
10000115
330
F4B38
100
AcDbEntity
  8
VISIBLE
100
AcDbVertex
100
AcDb3dPolylineVertex
 10
235.5242369296639
 20
1022.422314196108
 30
0.0
 70
    32
  0
VERTEX
  5
10000116
330
F4B38
100
AcDbEntity
  8
VISIBLE
100
AcDbVertex
100
AcDb3dPolylineVertex
 10
236.1939349225358
 20
1022.033899264575
 30
0.0
 70
    32
  0
SEQEND
  5
10000119
330
F4B38
100
AcDbEntity
  8
VISIBLE
  0
POLYLINE
  5
F4B39
102
{ACAD_XDICTIONARY
360
1000011D
102
}
330
1F
100
AcDbEntity
  8
VISIBLE
100
AcDb3dPolyline
 66
     1
 10
0.0
 20
0.0
 30
0.0
 70
     8
  0
VERTEX
  5
1000011A
330
F4B39
100
AcDbEntity
  8
VISIBLE
100
AcDbVertex
100
AcDb3dPolylineVertex
 10
233.0404719491516
 20
1022.437200708957
 30
0.0
 70
    32
  0
VERTEX
  5
1000011B
330
F4B39
100
AcDbEntity
  8
VISIBLE
100
AcDbVertex
100
AcDb3dPolylineVertex
 10
233.7459139133443
 20
1022.56829806405
 30
0.0
 70
    32
  0
VERTEX
  5
1000011C
330
F4B39
100
AcDbEntity
  8
VISIBLE
100
AcDbVertex
100
AcDb3dPolylineVertex
 10
234.3024824120625
 20
1022.599771833824
 30
0.0
 70
    32
  0
SEQEND
  5
1000011F
330
F4B39
100
AcDbEntity
  8
VISIBLE
  0
POLYLINE
  5
F4B3A
102
{ACAD_XDICTIONARY
360
10000123
102
}
330
1F
100
AcDbEntity
  8
VISIBLE
100
AcDb3dPolyline
 66
     1
 10
0.0
 20
0.0
 30
0.0
 70
     8
  0
VERTEX
  5
10000120
330
F4B3A
100
AcDbEntity
  8
VISIBLE
100
AcDbVertex
100
AcDb3dPolylineVertex
 10
231.8847579909616
 20
1021.989087992977
 30
0.0
 70
    32
  0
VERTEX
  5
10000121
330
F4B3A
100
AcDbEntity
  8
VISIBLE
100
AcDbVertex
100
AcDb3dPolylineVertex
 10
232.5070502438222
 20
1022.270331036809
 30
0.0
 70
    32
  0
VERTEX
  5
10000122
330
F4B3A
100
AcDbEntity
  8
VISIBLE
100
AcDbVertex
100
AcDb3dPolylineVertex
 10
233.0404719491516
 20
1022.437200708957
 30
0.0
 70
    32
  0
SEQEND
  5
10000125
330
F4B3A
100
AcDbEntity
  8
VISIBLE
  0
LINE
  5
F4B3B
102
{ACAD_XDICTIONARY
360
10000126
102
}
330
1F
100
AcDbEntity
  8
VISIBLE
100
AcDbLine
 10
232.2182372214582
 20
1021.161642652307
 30
0.0
 11
231.8847579909616
 21
1021.989087992977
 31
0.0
  0
POLYLINE
  5
F4B3C
102
{ACAD_XDICTIONARY
360
1000012B
102
}
330
1F
100
AcDbEntity
  8
VISIBLE
100
AcDb3dPolyline
 66
     1
 10
0.0
 20
0.0
 30
0.0
 70
     8
  0
VERTEX
  5
10000128
330
F4B3C
100
AcDbEntity
  8
VISIBLE
100
AcDbVertex
100
AcDb3dPolylineVertex
 10
234.2357865659631
 20
1021.707714892246
 30
0.0
 70
    32
  0
VERTEX
  5
10000129
330
F4B3C
100
AcDbEntity
  8
VISIBLE
100
AcDbVertex
100
AcDb3dPolylineVertex
 10
233.1634774307165
 20
1021.536466637801
 30
0.0
 70
    32
  0
VERTEX
  5
1000012A
330
F4B3C
100
AcDbEntity
  8
VISIBLE
100
AcDbVertex
100
AcDb3dPolylineVertex
 10
232.2182372214582
 20
1021.161642652307
 30
0.0
 70
    32
  0
SEQEND
  5
1000012D
330
F4B3C
100
AcDbEntity
  8
VISIBLE
  0
POLYLINE
  5
F4B3D
102
{ACAD_XDICTIONARY
360
10000131
102
}
330
1F
100
AcDbEntity
  8
VISIBLE
100
AcDb3dPolyline
 66
     1
 10
0.0
 20
0.0
 30
0.0
 70
     8
  0
VERTEX
  5
1000012E
330
F4B3D
100
AcDbEntity
  8
VISIBLE
100
AcDbVertex
100
AcDb3dPolylineVertex
 10
235.3925426467485
 20
1021.30753981565
 30
0.0
 70
    32
  0
VERTEX
  5
1000012F
330
F4B3D
100
AcDbEntity
  8
VISIBLE
100
AcDbVertex
100
AcDb3dPolylineVertex
 10
234.8520928666363
 20
1021.630240997417
 30
0.0
 70
    32
  0
VERTEX
  5
10000130
330
F4B3D
100
AcDbEntity
  8
VISIBLE
100
AcDbVertex
100
AcDb3dPolylineVertex
 10
234.2357865659631
 20
1021.707714892246
 30
0.0
 70
    32
  0
SEQEND
  5
10000133
330
F4B3D
100
AcDbEntity
  8
VISIBLE
  0
POLYLINE
  5
F4B3E
102
{ACAD_XDICTIONARY
360
10000137
102
}
330
1F
100
AcDbEntity
  8
VISIBLE
100
AcDb3dPolyline
 66
     1
 10
0.0
 20
0.0
 30
0.0
 70
     8
  0
VERTEX
  5
10000134
330
F4B3E
100
AcDbEntity
  8
VISIBLE
100
AcDbVertex
100
AcDb3dPolylineVertex
 10
235.753117064723
 20
1020.06741392724
 30
0.0
 70
    32
  0
VERTEX
  5
10000135
330
F4B3E
100
AcDbEntity
  8
VISIBLE
100
AcDbVertex
100
AcDb3dPolylineVertex
 10
235.6400409272462
 20
1020.870245165907
 30
0.0
 70
    32
  0
VERTEX
  5
10000136
330
F4B3E
100
AcDbEntity
  8
VISIBLE
100
AcDbVertex
100
AcDb3dPolylineVertex
 10
235.3925426467485
 20
1021.30753981565
 30
0.0
 70
    32
  0
SEQEND
  5
10000139
330
F4B3E
100
AcDbEntity
  8
VISIBLE
  0
LINE
  5
F4B3F
102
{ACAD_XDICTIONARY
360
1000013A
102
}
330
1F
100
AcDbEntity
  8
VISIBLE
100
AcDbLine
 10
235.753117064723
 20
1019.623469701642
 30
0.0
 11
235.753117064723
 21
1020.06741392724
 31
0.0
  0
LINE
  5
F4B40
102
{ACAD_XDICTIONARY
360
1000013C
102
}
330
1F
100
AcDbEntity
  8
VISIBLE
100
AcDbLine
 10
234.5421706089819
 20
1019.58386904302
 30
0.0
 11
235.753117064723
 21
1019.623469701642
 31
0.0
  0
POLYLINE
  5
F4B41
102
{ACAD_XDICTIONARY
360
10000144
102
}
330
1F
100
AcDbEntity
  8
VISIBLE
100
AcDb3dPolyline
 66
     1
 10
0.0
 20
0.0
 30
0.0
 70
     8
  0
VERTEX
  5
10000141
330
F4B41
100
AcDbEntity
  8
VISIBLE
100
AcDbVertex
100
AcDb3dPolylineVertex
 10
231.0844078377695
 20
1017.318294520833
 30
0.0
 70
    32
  0
VERTEX
  5
10000142
330
F4B41
100
AcDbEntity
  8
VISIBLE
100
AcDbVertex
100
AcDb3dPolylineVertex
 10
232.1687622428218
 20
1019.093898014028
 30
0.0
 70
    32
  0
VERTEX
  5
10000143
330
F4B41
100
AcDbEntity
  8
VISIBLE
100
AcDbVertex
100
AcDb3dPolylineVertex
 10
234.5421706089819
 20
1019.58386904302
 30
0.0
 70
    32
  0
SEQEND
  5
10000146
330
F4B41
100
AcDbEntity
  8
VISIBLE
  0
POLYLINE
  5
F4B42
102
{ACAD_XDICTIONARY
360
1000014A
102
}
330
1F
100
AcDbEntity
  8
VISIBLE
100
AcDb3dPolyline
 66
     1
 10
0.0
 20
0.0
 30
0.0
 70
     8
  0
VERTEX
  5
10000147
330
F4B42
100
AcDbEntity
  8
VISIBLE
100
AcDbVertex
100
AcDb3dPolylineVertex
 10
231.6867546978542
 20
1015.761363363452
 30
0.0
 70
    32
  0
VERTEX
  5
10000148
330
F4B42
100
AcDbEntity
  8
VISIBLE
100
AcDbVertex
100
AcDb3dPolylineVertex
 10
231.2010221898819
 20
1016.519748490278
 30
0.0
 70
    32
  0
VERTEX
  5
10000149
330
F4B42
100
AcDbEntity
  8
VISIBLE
100
AcDbVertex
100
AcDb3dPolylineVertex
 10
231.0844078377695
 20
1017.318294520833
 30
0.0
 70
    32
  0
SEQEND
  5
1000014C
330
F4B42
100
AcDbEntity
  8
VISIBLE
  0
POLYLINE
  5
F4B43
102
{ACAD_XDICTIONARY
360
10000150
102
}
330
1F
100
AcDbEntity
  8
VISIBLE
100
AcDb3dPolyline
 66
     1
 10
0.0
 20
0.0
 30
0.0
 70
     8
  0
VERTEX
  5
1000014D
330
F4B43
100
AcDbEntity
  8
VISIBLE
100
AcDbVertex
100
AcDb3dPolylineVertex
 10
233.3499823599563
 20
1015.213206878323
 30
0.0
 70
    32
  0
VERTEX
  5
1000014E
330
F4B43
100
AcDbEntity
  8
VISIBLE
100
AcDbVertex
100
AcDb3dPolylineVertex
 10
232.3055921058869
 20
1015.38510875206
 30
0.0
 70
    32
  0
VERTEX
  5
1000014F
330
F4B43
100
AcDbEntity
  8
VISIBLE
100
AcDbVertex
100
AcDb3dPolylineVertex
 10
231.6867546978542
 20
1015.761363363452
 30
0.0
 70
    32
  0
SEQEND
  5
10000152
330
F4B43
100
AcDbEntity
  8
VISIBLE
  0
POLYLINE
  5
F4B44
102
{ACAD_XDICTIONARY
360
10000156
102
}
330
1F
100
AcDbEntity
  8
VISIBLE
100
AcDb3dPolyline
 66
     1
 10
0.0
 20
0.0
 30
0.0
 70
     8
  0
VERTEX
  5
10000153
330
F4B44
100
AcDbEntity
  8
VISIBLE
100
AcDbVertex
100
AcDb3dPolylineVertex
 10
234.6766044237759
 20
1015.451852952647
 30
0.0
 70
    32
  0
VERTEX
  5
10000154
330
F4B44
100
AcDbEntity
  8
VISIBLE
100
AcDbVertex
100
AcDb3dPolylineVertex
 10
233.999174714945
 20
1015.259408758312
 30
0.0
 70
    32
  0
VERTEX
  5
10000155
330
F4B44
100
AcDbEntity
  8
VISIBLE
100
AcDbVertex
100
AcDb3dPolylineVertex
 10
233.3499823599563
 20
1015.213206878323
 30
0.0
 70
    32
  0
SEQEND
  5
10000158
330
F4B44
100
AcDbEntity
  8
VISIBLE
  0
POLYLINE
  5
F4B45
102
{ACAD_XDICTIONARY
360
1000015C
102
}
330
1F
100
AcDbEntity
  8
VISIBLE
100
AcDb3dPolyline
 66
     1
 10
0.0
 20
0.0
 30
0.0
 70
     8
  0
VERTEX
  5
10000159
330
F4B45
100
AcDbEntity
  8
VISIBLE
100
AcDbVertex
100
AcDb3dPolylineVertex
 10
235.7406115935794
 20
1016.361625978346
 30
0.0
 70
    32
  0
VERTEX
  5
1000015A
330
F4B45
100
AcDbEntity
  8
VISIBLE
100
AcDbVertex
100
AcDb3dPolylineVertex
 10
235.143997241467
 20
1015.745589795849
 30
0.0
 70
    32
  0
VERTEX
  5
1000015B
330
F4B45
100
AcDbEntity
  8
VISIBLE
100
AcDbVertex
100
AcDb3dPolylineVertex
 10
234.6766044237759
 20
1015.451852952647
 30
0.0
 70
    32
  0
SEQEND
  5
1000015E
330
F4B45
100
AcDbEntity
  8
VISIBLE
  0
LINE
  5
F4B46
102
{ACAD_XDICTIONARY
360
1000015F
102
}
330
1F
100
AcDbEntity
  8
VISIBLE
100
AcDbLine
 10
235.7927177233445
 20
1016.361625978346
 30
0.0
 11
235.7406115935794
 21
1016.361625978346
 31
0.0
  0
LINE
  5
F4B47
102
{ACAD_XDICTIONARY
360
10000161
102
}
330
1F
100
AcDbEntity
  8
VISIBLE
100
AcDbLine
 10
236.0073949779767
 20
1015.344514325331
 30
0.0
 11
235.7927177233445
 21
1016.361625978346
 31
0.0
  0
LINE
  5
F4B48
102
{ACAD_XDICTIONARY
360
10000166
102
}
330
1F
100
AcDbEntity
  8
VISIBLE
100
AcDbLine
 10
223.3539424258185
 20
1022.48305410315
 30
0.0
 11
224.4481711508857
 21
1022.48305410315
 31
0.0
  0
LINE
  5
F4B49
102
{ACAD_XDICTIONARY
360
1000016B
102
}
330
1F
100
AcDbEntity
  8
VISIBLE
100
AcDbLine
 10
223.3539424258185
 20
1017.812260631006
 30
0.0
 11
223.3539424258185
 21
1022.48305410315
 31
0.0
  0
POLYLINE
  5
F4B4A
102
{ACAD_XDICTIONARY
360
10000173
102
}
330
1F
100
AcDbEntity
  8
VISIBLE
100
AcDb3dPolyline
 66
     1
 10
0.0
 20
0.0
 30
0.0
 70
     8
  0
VERTEX
  5
10000170
330
F4B4A
100
AcDbEntity
  8
VISIBLE
100
AcDbVertex
100
AcDb3dPolylineVertex
 10
224.0011005575011
 20
1015.832227699932
 30
0.0
 70
    32
  0
VERTEX
  5
10000171
330
F4B4A
100
AcDbEntity
  8
VISIBLE
100
AcDbVertex
100
AcDb3dPolylineVertex
 10
223.4792322401123
 20
1016.758219488006
 30
0.0
 70
    32
  0
VERTEX
  5
10000172
330
F4B4A
100
AcDbEntity
  8
VISIBLE
100
AcDbVertex
100
AcDb3dPolylineVertex
 10
223.3539424258185
 20
1017.812260631006
 30
0.0
 70
    32
  0
SEQEND
  5
10000175
330
F4B4A
100
AcDbEntity
  8
VISIBLE
  0
POLYLINE
  5
F4B4B
102
{ACAD_XDICTIONARY
360
10000179
102
}
330
1F
100
AcDbEntity
  8
VISIBLE
100
AcDb3dPolyline
 66
     1
 10
0.0
 20
0.0
 30
0.0
 70
     8
  0
VERTEX
  5
10000176
330
F4B4B
100
AcDbEntity
  8
VISIBLE
100
AcDbVertex
100
AcDb3dPolylineVertex
 10
225.9509119333113
 20
1015.213206878323
 30
0.0
 70
    32
  0
VERTEX
  5
10000177
330
F4B4B
100
AcDbEntity
  8
VISIBLE
100
AcDbVertex
100
AcDb3dPolylineVertex
 10
224.6975035671512
 20
1015.40733180798
 30
0.0
 70
    32
  0
VERTEX
  5
10000178
330
F4B4B
100
AcDbEntity
  8
VISIBLE
100
AcDbVertex
100
AcDb3dPolylineVertex
 10
224.0011005575011
 20
1015.832227699932
 30
0.0
 70
    32
  0
SEQEND
  5
1000017B
330
F4B4B
100
AcDbEntity
  8
VISIBLE
  0
POLYLINE
  5
F4B4C
102
{ACAD_XDICTIONARY
360
1000017F
102
}
330
1F
100
AcDbEntity
  8
VISIBLE
100
AcDb3dPolyline
 66
     1
 10
0.0
 20
0.0
 30
0.0
 70
     8
  0
VERTEX
  5
1000017C
330
F4B4C
100
AcDbEntity
  8
VISIBLE
100
AcDbVertex
100
AcDb3dPolylineVertex
 10
227.2973343264417
 20
1015.493537856459
 30
0.0
 70
    32
  0
VERTEX
  5
1000017D
330
F4B4C
100
AcDbEntity
  8
VISIBLE
100
AcDbVertex
100
AcDb3dPolylineVertex
 10
226.5844224274859
 20
1015.26747895569
 30
0.0
 70
    32
  0
VERTEX
  5
1000017E
330
F4B4C
100
AcDbEntity
  8
VISIBLE
100
AcDbVertex
100
AcDb3dPolylineVertex
 10
225.9509119333113
 20
1015.213206878323
 30
0.0
 70
    32
  0
SEQEND
  5
10000181
330
F4B4C
100
AcDbEntity
  8
VISIBLE
  0
POLYLINE
  5
F4B4D
102
{ACAD_XDICTIONARY
360
10000185
102
}
330
1F
100
AcDbEntity
  8
VISIBLE
100
AcDb3dPolyline
 66
     1
 10
0.0
 20
0.0
 30
0.0
 70
     8
  0
VERTEX
  5
10000182
330
F4B4D
100
AcDbEntity
  8
VISIBLE
100
AcDbVertex
100
AcDb3dPolylineVertex
 10
228.2185707006887
 20
1016.301182867818
 30
0.0
 70
    32
  0
VERTEX
  5
10000183
330
F4B4D
100
AcDbEntity
  8
VISIBLE
100
AcDbVertex
100
AcDb3dPolylineVertex
 10
227.766359524966
 20
1015.788045036684
 30
0.0
 70
    32
  0
VERTEX
  5
10000184
330
F4B4D
100
AcDbEntity
  8
VISIBLE
100
AcDbVertex
100
AcDb3dPolylineVertex
 10
227.2973343264417
 20
1015.493537856459
 30
0.0
 70
    32
  0
SEQEND
  5
10000187
330
F4B4D
100
AcDbEntity
  8
VISIBLE
  0
LINE
  5
F4B4E
102
{ACAD_XDICTIONARY
360
10000188
102
}
330
1F
100
AcDbEntity
  8
VISIBLE
100
AcDbLine
 10
228.2769295660256
 20
1016.301182867818
 30
0.0
 11
228.2185707006887
 21
1016.301182867818
 31
0.0
  0
LINE
  5
F4B4F
102
{ACAD_XDICTIONARY
360
1000018A
102
}
330
1F
100
AcDbEntity
  8
VISIBLE
100
AcDbLine
 10
228.433247955321
 20
1015.344514325331
 30
0.0
 11
228.2769295660256
 21
1016.301182867819
 31
0.0
  0
LINE
  5
F4B50
102
{ACAD_XDICTIONARY
360
1000018F
102
}
330
1F
100
AcDbEntity
  8
VISIBLE
100
AcDbLine
 10
229.3253048968996
 20
1015.344514325331
 30
0.0
 11
228.433247955321
 21
1015.344514325331
 31
0.0
  0
LINE
  5
F4B51
102
{ACAD_XDICTIONARY
360
10000194
102
}
330
1F
100
AcDbEntity
  8
VISIBLE
100
AcDbLine
 10
229.3253048968996
 20
1022.483054103151
 30
0.0
 11
229.3253048968996
 21
1015.344514325331
 31
0.0
  0
LINE
  5
F4B52
102
{ACAD_XDICTIONARY
360
10000199
102
}
330
1F
100
AcDbEntity
  8
VISIBLE
100
AcDbLine
 10
228.243581642976
 20
1022.48305410315
 30
0.0
 11
229.3253048968996
 21
1022.48305410315
 31
0.0
  0
LINE
  5
F4B53
102
{ACAD_XDICTIONARY
360
1000019E
102
}
330
1F
100
AcDbEntity
  8
VISIBLE
100
AcDbLine
 10
228.243581642976
 20
1018.731412760063
 30
0.0
 11
228.243581642976
 21
1022.483054103151
 31
0.0
  0
POLYLINE
  5
F4B54
102
{ACAD_XDICTIONARY
360
100001A6
102
}
330
1F
100
AcDbEntity
  8
VISIBLE
100
AcDb3dPolyline
 66
     1
 10
0.0
 20
0.0
 30
0.0
 70
     8
  0
VERTEX
  5
100001A3
330
F4B54
100
AcDbEntity
  8
VISIBLE
100
AcDbVertex
100
AcDb3dPolylineVertex
 10
227.7266888357061
 20
1016.731579499678
 30
0.0
 70
    32
  0
VERTEX
  5
100001A4
330
F4B54
100
AcDbEntity
  8
VISIBLE
100
AcDbVertex
100
AcDb3dPolylineVertex
 10
228.1435111954885
 20
1017.660185764919
 30
0.0
 70
    32
  0
VERTEX
  5
100001A5
330
F4B54
100
AcDbEntity
  8
VISIBLE
100
AcDbVertex
100
AcDb3dPolylineVertex
 10
228.243581642976
 20
1018.731412760063
 30
0.0
 70
    32
  0
SEQEND
  5
100001A8
330
F4B54
100
AcDbEntity
  8
VISIBLE
  0
POLYLINE
  5
F4B55
102
{ACAD_XDICTIONARY
360
100001AC
102
}
330
1F
100
AcDbEntity
  8
VISIBLE
100
AcDb3dPolyline
 66
     1
 10
0.0
 20
0.0
 30
0.0
 70
     8
  0
VERTEX
  5
100001A9
330
F4B55
100
AcDbEntity
  8
VISIBLE
100
AcDbVertex
100
AcDb3dPolylineVertex
 10
226.0884721158912
 20
1016.119853536236
 30
0.0
 70
    32
  0
VERTEX
  5
100001AA
330
F4B55
100
AcDbEntity
  8
VISIBLE
100
AcDbVertex
100
AcDb3dPolylineVertex
 10
227.1548053033274
 20
1016.311690798371
 30
0.0
 70
    32
  0
VERTEX
  5
100001AB
330
F4B55
100
AcDbEntity
  8
VISIBLE
100
AcDbVertex
100
AcDb3dPolylineVertex
 10
227.7266888357061
 20
1016.731579499678
 30
0.0
 70
    32
  0
SEQEND
  5
100001AE
330
F4B55
100
AcDbEntity
  8
VISIBLE
  0
POLYLINE
  5
F4B56
102
{ACAD_XDICTIONARY
360
100001B2
102
}
330
1F
100
AcDbEntity
  8
VISIBLE
100
AcDb3dPolyline
 66
     1
 10
0.0
 20
0.0
 30
0.0
 70
     8
  0
VERTEX
  5
100001AF
330
F4B56
100
AcDbEntity
  8
VISIBLE
100
AcDbVertex
100
AcDb3dPolylineVertex
 10
224.8452198596958
 20
1016.5492080455
 30
0.0
 70
    32
  0
VERTEX
  5
100001B0
330
F4B56
100
AcDbEntity
  8
VISIBLE
100
AcDbVertex
100
AcDb3dPolylineVertex
 10
225.4307693709403
 20
1016.202976569229
 30
0.0
 70
    32
  0
VERTEX
  5
100001B1
330
F4B56
100
AcDbEntity
  8
VISIBLE
100
AcDbVertex
100
AcDb3dPolylineVertex
 10
226.0884721158912
 20
1016.119853536236
 30
0.0
 70
    32
  0
SEQEND
  5
100001B4
330
F4B56
100
AcDbEntity
  8
VISIBLE
  0
POLYLINE
  5
F4B57
102
{ACAD_XDICTIONARY
360
100001B8
102
}
330
1F
100
AcDbEntity
  8
VISIBLE
100
AcDb3dPolyline
 66
     1
 10
0.0
 20
0.0
 30
0.0
 70
     8
  0
VERTEX
  5
100001B5
330
F4B57
100
AcDbEntity
  8
VISIBLE
100
AcDbVertex
100
AcDb3dPolylineVertex
 10
224.4481711508857
 20
1017.851861289628
 30
0.0
 70
    32
  0
VERTEX
  5
100001B6
330
F4B57
100
AcDbEntity
  8
VISIBLE
100
AcDbVertex
100
AcDb3dPolylineVertex
 10
224.5726856259686
 20
1017.012987615729
 30
0.0
 70
    32
  0
VERTEX
  5
100001B7
330
F4B57
100
AcDbEntity
  8
VISIBLE
100
AcDbVertex
100
AcDb3dPolylineVertex
 10
224.8452198596958
 20
1016.5492080455
 30
0.0
 70
    32
  0
SEQEND
  5
100001BA
330
F4B57
100
AcDbEntity
  8
VISIBLE
  0
LINE
  5
F4B58
102
{ACAD_XDICTIONARY
360
100001BB
102
}
330
1F
100
AcDbEntity
  8
VISIBLE
100
AcDbLine
 10
224.4481711508857
 20
1022.483054103151
 30
0.0
 11
224.4481711508857
 21
1017.851861289628
 31
0.0
  0
POLYLINE
  5
F4B59
102
{ACAD_XDICTIONARY
360
100001C0
102
}
330
1F
100
AcDbEntity
  8
VISIBLE
100
AcDb3dPolyline
 66
     1
 10
0.0
 20
0.0
 30
0.0
 70
     8
  0
VERTEX
  5
100001BD
330
F4B59
100
AcDbEntity
  8
VISIBLE
100
AcDbVertex
100
AcDb3dPolylineVertex
 10
220.044161063139
 20
1016.301182867818
 30
0.0
 70
    32
  0
VERTEX
  5
100001BE
330
F4B59
100
AcDbEntity
  8
VISIBLE
100
AcDbVertex
100
AcDb3dPolylineVertex
 10
218.9688639539871
 20
1015.423839029889
 30
0.0
 70
    32
  0
VERTEX
  5
100001BF
330
F4B59
100
AcDbEntity
  8
VISIBLE
100
AcDbVertex
100
AcDb3dPolylineVertex
 10
217.7910920120958
 20
1015.213206878323
 30
0.0
 70
    32
  0
SEQEND
  5
100001C2
330
F4B59
100
AcDbEntity
  8
VISIBLE
  0
LINE
  5
F4B5A
102
{ACAD_XDICTIONARY
360
100001C3
102
}
330
1F
100
AcDbEntity
  8
VISIBLE
100
AcDbLine
 10
220.1296151159538
 20
1016.301182867818
 30
0.0
 11
220.044161063139
 21
1016.301182867818
 31
0.0
  0
POLYLINE
  5
F4B5B
102
{ACAD_XDICTIONARY
360
100001C8
102
}
330
1F
100
AcDbEntity
  8
VISIBLE
100
AcDb3dPolyline
 66
     1
 10
0.0
 20
0.0
 30
0.0
 70
     8
  0
VERTEX
  5
100001C5
330
F4B5B
100
AcDbEntity
  8
VISIBLE
100
AcDbVertex
100
AcDb3dPolylineVertex
 10
220.0566665342826
 20
1015.194448671608
 30
0.0
 70
    32
  0
VERTEX
  5
100001C6
330
F4B5B
100
AcDbEntity
  8
VISIBLE
100
AcDbVertex
100
AcDb3dPolylineVertex
 10
220.0795432094947
 20
1015.863007832907
 30
0.0
 70
    32
  0
VERTEX
  5
100001C7
330
F4B5B
100
AcDbEntity
  8
VISIBLE
100
AcDbVertex
100
AcDb3dPolylineVertex
 10
220.1296151159538
 20
1016.301182867818
 30
0.0
 70
    32
  0
SEQEND
  5
100001CA
330
F4B5B
100
AcDbEntity
  8
VISIBLE
  0
LINE
  5
F4B5C
102
{ACAD_XDICTIONARY
360
100001CB
102
}
330
1F
100
AcDbEntity
  8
VISIBLE
100
AcDbLine
 10
220.0566665342826
 20
1012.138945222182
 30
0.0
 11
220.0566665342826
 21
1015.194448671608
 31
0.0
  0
LINE
  5
F4B5D
102
{ACAD_XDICTIONARY
360
100001CD
102
}
330
1F
100
AcDbEntity
  8
VISIBLE
100
AcDbLine
 10
221.1383897882062
 20
1012.138945222182
 30
0.0
 11
220.0566665342826
 21
1012.138945222182
 31
0.0
  0
LINE
  5
F4B5E
102
{ACAD_XDICTIONARY
360
100001CF
102
}
330
1F
100
AcDbEntity
  8
VISIBLE
100
AcDbLine
 10
221.1383897882062
 20
1022.48305410315
 30
0.0
 11
221.1383897882062
 21
1012.138945222182
 31
0.0
  0
LINE
  5
F4B5F
102
{ACAD_XDICTIONARY
360
100001D1
102
}
330
1F
100
AcDbEntity
  8
VISIBLE
100
AcDbLine
 10
220.2859335052491
 20
1022.48305410315
 30
0.0
 11
221.1383897882062
 21
1022.48305410315
 31
0.0
  0
LINE
  5
F4B60
102
{ACAD_XDICTIONARY
360
100001D3
102
}
330
1F
100
AcDbEntity
  8
VISIBLE
100
AcDbLine
 10
220.1296151159538
 20
1021.505543108757
 30
0.0
 11
220.2859335052491
 21
1022.48305410315
 31
0.0
  0
LINE
  5
F4B61
102
{ACAD_XDICTIONARY
360
100001D5
102
}
330
1F
100
AcDbEntity
  8
VISIBLE
100
AcDbLine
 10
220.0691720054263
 20
1021.505543108757
 30
0.0
 11
220.1296151159538
 21
1021.505543108757
 31
0.0
  0
POLYLINE
  5
F4B62
102
{ACAD_XDICTIONARY
360
100001DA
102
}
330
1F
100
AcDbEntity
  8
VISIBLE
100
AcDb3dPolyline
 66
     1
 10
0.0
 20
0.0
 30
0.0
 70
     8
  0
VERTEX
  5
100001D7
330
F4B62
100
AcDbEntity
  8
VISIBLE
100
AcDbVertex
100
AcDb3dPolylineVertex
 10
217.8161029543831
 20
1022.614361550159
 30
0.0
 70
    32
  0
VERTEX
  5
100001D8
330
F4B62
100
AcDbEntity
  8
VISIBLE
100
AcDbVertex
100
AcDb3dPolylineVertex
 10
219.2447279778308
 20
1022.266636086935
 30
0.0
 70
    32
  0
VERTEX
  5
100001D9
330
F4B62
100
AcDbEntity
  8
VISIBLE
100
AcDbVertex
100
AcDb3dPolylineVertex
 10
220.0691720054263
 20
1021.505543108757
 30
0.0
 70
    32
  0
SEQEND
  5
100001DC
330
F4B62
100
AcDbEntity
  8
VISIBLE
  0
POLYLINE
  5
F4B63
102
{ACAD_XDICTIONARY
360
100001E0
102
}
330
1F
100
AcDbEntity
  8
VISIBLE
100
AcDb3dPolyline
 66
     1
 10
0.0
 20
0.0
 30
0.0
 70
     8
  0
VERTEX
  5
100001DD
330
F4B63
100
AcDbEntity
  8
VISIBLE
100
AcDbVertex
100
AcDb3dPolylineVertex
 10
215.6401509753923
 20
1021.630597820193
 30
0.0
 70
    32
  0
VERTEX
  5
100001DE
330
F4B63
100
AcDbEntity
  8
VISIBLE
100
AcDbVertex
100
AcDb3dPolylineVertex
 10
216.7076980272275
 20
1022.423904892037
 30
0.0
 70
    32
  0
VERTEX
  5
100001DF
330
F4B63
100
AcDbEntity
  8
VISIBLE
100
AcDbVertex
100
AcDb3dPolylineVertex
 10
217.8161029543831
 20
1022.614361550159
 30
0.0
 70
    32
  0
SEQEND
  5
100001E2
330
F4B63
100
AcDbEntity
  8
VISIBLE
  0
POLYLINE
  5
F4B64
102
{ACAD_XDICTIONARY
360
100001E6
102
}
330
1F
100
AcDbEntity
  8
VISIBLE
100
AcDb3dPolyline
 66
     1
 10
0.0
 20
0.0
 30
0.0
 70
     8
  0
VERTEX
  5
100001E3
330
F4B64
100
AcDbEntity
  8
VISIBLE
100
AcDbVertex
100
AcDb3dPolylineVertex
 10
214.8585590289157
 20
1018.89398388493
 30
0.0
 70
    32
  0
VERTEX
  5
100001E4
330
F4B64
100
AcDbEntity
  8
VISIBLE
100
AcDbVertex
100
AcDb3dPolylineVertex
 10
215.1036662633308
 20
1020.6159905962
 30
0.0
 70
    32
  0
VERTEX
  5
100001E5
330
F4B64
100
AcDbEntity
  8
VISIBLE
100
AcDbVertex
100
AcDb3dPolylineVertex
 10
215.6401509753923
 20
1021.630597820193
 30
0.0
 70
    32
  0
SEQEND
  5
100001E8
330
F4B64
100
AcDbEntity
  8
VISIBLE
  0
POLYLINE
  5
F4B65
102
{ACAD_XDICTIONARY
360
100001EC
102
}
330
1F
100
AcDbEntity
  8
VISIBLE
100
AcDb3dPolyline
 66
     1
 10
0.0
 20
0.0
 30
0.0
 70
     8
  0
VERTEX
  5
100001E9
330
F4B65
100
AcDbEntity
  8
VISIBLE
100
AcDbVertex
100
AcDb3dPolylineVertex
 10
215.6338982398205
 20
1016.184465137145
 30
0.0
 70
    32
  0
VERTEX
  5
100001EA
330
F4B65
100
AcDbEntity
  8
VISIBLE
100
AcDbVertex
100
AcDb3dPolylineVertex
 10
215.0086647001469
 20
1017.512806286397
 30
0.0
 70
    32
  0
VERTEX
  5
100001EB
330
F4B65
100
AcDbEntity
  8
VISIBLE
100
AcDbVertex
100
AcDb3dPolylineVertex
 10
214.8585590289157
 20
1018.89398388493
 30
0.0
 70
    32
  0
SEQEND
  5
100001EE
330
F4B65
100
AcDbEntity
  8
VISIBLE
  0
POLYLINE
  5
F4B66
102
{ACAD_XDICTIONARY
360
100001F2
102
}
330
1F
100
AcDbEntity
  8
VISIBLE
100
AcDb3dPolyline
 66
     1
 10
0.0
 20
0.0
 30
0.0
 70
     8
  0
VERTEX
  5
100001EF
330
F4B66
100
AcDbEntity
  8
VISIBLE
100
AcDbVertex
100
AcDb3dPolylineVertex
 10
217.7910920120958
 20
1015.213206878323
 30
0.0
 70
    32
  0
VERTEX
  5
100001F0
330
F4B66
100
AcDbEntity
  8
VISIBLE
100
AcDbVertex
100
AcDb3dPolylineVertex
 10
216.4336181172669
 20
1015.517793468289
 30
0.0
 70
    32
  0
VERTEX
  5
100001F1
330
F4B66
100
AcDbEntity
  8
VISIBLE
100
AcDbVertex
100
AcDb3dPolylineVertex
 10
215.6338982398205
 20
1016.184465137145
 30
0.0
 70
    32
  0
SEQEND
  5
100001F4
330
F4B66
100
AcDbEntity
  8
VISIBLE
  0
POLYLINE
  5
F4B67
102
{ACAD_XDICTIONARY
360
100001F8
102
}
330
1F
100
AcDbEntity
  8
VISIBLE
100
AcDb3dPolyline
 66
     1
 10
0.0
 20
0.0
 30
0.0
 70
     8
  0
VERTEX
  5
100001F5
330
F4B67
100
AcDbEntity
  8
VISIBLE
100
AcDbVertex
100
AcDb3dPolylineVertex
 10
216.4780175420152
 20
1016.826412655851
 30
0.0
 70
    32
  0
VERTEX
  5
100001F6
330
F4B67
100
AcDbEntity
  8
VISIBLE
100
AcDbVertex
100
AcDb3dPolylineVertex
 10
217.186260731744
 20
1016.256643381793
 30
0.0
 70
    32
  0
VERTEX
  5
100001F7
330
F4B67
100
AcDbEntity
  8
VISIBLE
100
AcDbVertex
100
AcDb3dPolylineVertex
 10
217.953663136963
 20
1016.119853536236
 30
0.0
 70
    32
  0
SEQEND
  5
100001FA
330
F4B67
100
AcDbEntity
  8
VISIBLE
  0
POLYLINE
  5
F4B68
102
{ACAD_XDICTIONARY
360
100001FE
102
}
330
1F
100
AcDbEntity
  8
VISIBLE
100
AcDb3dPolyline
 66
     1
 10
0.0
 20
0.0
 30
0.0
 70
     8
  0
VERTEX
  5
100001FB
330
F4B68
100
AcDbEntity
  8
VISIBLE
100
AcDbVertex
100
AcDb3dPolylineVertex
 10
215.9798829414607
 20
1018.881478413786
 30
0.0
 70
    32
  0
VERTEX
  5
100001FC
330
F4B68
100
AcDbEntity
  8
VISIBLE
100
AcDbVertex
100
AcDb3dPolylineVertex
 10
216.1360979521946
 20
1017.572465720733
 30
0.0
 70
    32
  0
VERTEX
  5
100001FD
330
F4B68
100
AcDbEntity
  8
VISIBLE
100
AcDbVertex
100
AcDb3dPolylineVertex
 10
216.4780175420152
 20
1016.826412655851
 30
0.0
 70
    32
  0
SEQEND
  5
10000200
330
F4B68
100
AcDbEntity
  8
VISIBLE
  0
POLYLINE
  5
F4B69
102
{ACAD_XDICTIONARY
360
10000204
102
}
330
1F
100
AcDbEntity
  8
VISIBLE
100
AcDb3dPolyline
 66
     1
 10
0.0
 20
0.0
 30
0.0
 70
     8
  0
VERTEX
  5
10000201
330
F4B69
100
AcDbEntity
  8
VISIBLE
100
AcDbVertex
100
AcDb3dPolylineVertex
 10
216.484270277587
 20
1020.968849972176
 30
0.0
 70
    32
  0
VERTEX
  5
10000202
330
F4B69
100
AcDbEntity
  8
VISIBLE
100
AcDbVertex
100
AcDb3dPolylineVertex
 10
216.0775323297348
 20
1019.950137618855
 30
0.0
 70
    32
  0
VERTEX
  5
10000203
330
F4B69
100
AcDbEntity
  8
VISIBLE
100
AcDbVertex
100
AcDb3dPolylineVertex
 10
215.9798829414607
 20
1018.881478413786
 30
0.0
 70
    32
  0
SEQEND
  5
10000206
330
F4B69
100
AcDbEntity
  8
VISIBLE
  0
POLYLINE
  5
F4B6A
102
{ACAD_XDICTIONARY
360
1000020A
102
}
330
1F
100
AcDbEntity
  8
VISIBLE
100
AcDb3dPolyline
 66
     1
 10
0.0
 20
0.0
 30
0.0
 70
     8
  0
VERTEX
  5
10000207
330
F4B6A
100
AcDbEntity
  8
VISIBLE
100
AcDbVertex
100
AcDb3dPolylineVertex
 10
217.9411576658193
 20
1021.707714892246
 30
0.0
 70
    32
  0
VERTEX
  5
10000208
330
F4B6A
100
AcDbEntity
  8
VISIBLE
100
AcDbVertex
100
AcDb3dPolylineVertex
 10
217.0148857551918
 20
1021.476006853312
 30
0.0
 70
    32
  0
VERTEX
  5
10000209
330
F4B6A
100
AcDbEntity
  8
VISIBLE
100
AcDbVertex
100
AcDb3dPolylineVertex
 10
216.484270277587
 20
1020.968849972176
 30
0.0
 70
    32
  0
SEQEND
  5
1000020C
330
F4B6A
100
AcDbEntity
  8
VISIBLE
  0
POLYLINE
  5
F4B6B
102
{ACAD_XDICTIONARY
360
10000210
102
}
330
1F
100
AcDbEntity
  8
VISIBLE
100
AcDb3dPolyline
 66
     1
 10
0.0
 20
0.0
 30
0.0
 70
     8
  0
VERTEX
  5
1000020D
330
F4B6B
100
AcDbEntity
  8
VISIBLE
100
AcDbVertex
100
AcDb3dPolylineVertex
 10
219.5491528303705
 20
1021.05013553461
 30
0.0
 70
    32
  0
VERTEX
  5
1000020E
330
F4B6B
100
AcDbEntity
  8
VISIBLE
100
AcDbVertex
100
AcDb3dPolylineVertex
 10
218.7947827934794
 20
1021.580407528607
 30
0.0
 70
    32
  0
VERTEX
  5
1000020F
330
F4B6B
100
AcDbEntity
  8
VISIBLE
100
AcDbVertex
100
AcDb3dPolylineVertex
 10
217.9411576658193
 20
1021.707714892246
 30
0.0
 70
    32
  0
SEQEND
  5
10000212
330
F4B6B
100
AcDbEntity
  8
VISIBLE
  0
POLYLINE
  5
F4B6C
102
{ACAD_XDICTIONARY
360
10000216
102
}
330
1F
100
AcDbEntity
  8
VISIBLE
100
AcDb3dPolyline
 66
     1
 10
0.0
 20
0.0
 30
0.0
 70
     8
  0
VERTEX
  5
10000213
330
F4B6C
100
AcDbEntity
  8
VISIBLE
100
AcDbVertex
100
AcDb3dPolylineVertex
 10
220.0566665342826
 20
1018.89398388493
 30
0.0
 70
    32
  0
VERTEX
  5
10000214
330
F4B6C
100
AcDbEntity
  8
VISIBLE
100
AcDbVertex
100
AcDb3dPolylineVertex
 10
219.8975102367358
 20
1020.308649467789
 30
0.0
 70
    32
  0
VERTEX
  5
10000215
330
F4B6C
100
AcDbEntity
  8
VISIBLE
100
AcDbVertex
100
AcDb3dPolylineVertex
 10
219.5491528303705
 20
1021.05013553461
 30
0.0
 70
    32
  0
SEQEND
  5
10000218
330
F4B6C
100
AcDbEntity
  8
VISIBLE
  0
LINE
  5
F4B6D
102
{ACAD_XDICTIONARY
360
10000219
102
}
330
1F
100
AcDbEntity
  8
VISIBLE
100
AcDbLine
 10
220.0566665342826
 20
1018.654295688011
 30
0.0
 11
220.0566665342826
 21
1018.89398388493
 31
0.0
  0
POLYLINE
  5
F4B6E
102
{ACAD_XDICTIONARY
360
1000021E
102
}
330
1F
100
AcDbEntity
  8
VISIBLE
100
AcDb3dPolyline
 66
     1
 10
0.0
 20
0.0
 30
0.0
 70
     8
  0
VERTEX
  5
1000021B
330
F4B6E
100
AcDbEntity
  8
VISIBLE
100
AcDbVertex
100
AcDb3dPolylineVertex
 10
219.530394623655
 20
1016.699273699224
 30
0.0
 70
    32
  0
VERTEX
  5
1000021C
330
F4B6E
100
AcDbEntity
  8
VISIBLE
100
AcDbVertex
100
AcDb3dPolylineVertex
 10
219.9393735519362
 20
1017.597906851228
 30
0.0
 70
    32
  0
VERTEX
  5
1000021D
330
F4B6E
100
AcDbEntity
  8
VISIBLE
100
AcDbVertex
100
AcDb3dPolylineVertex
 10
220.0566665342826
 20
1018.654295688011
 30
0.0
 70
    32
  0
SEQEND
  5
10000220
330
F4B6E
100
AcDbEntity
  8
VISIBLE
  0
POLYLINE
  5
F4B6F
102
{ACAD_XDICTIONARY
360
10000224
102
}
330
1F
100
AcDbEntity
  8
VISIBLE
100
AcDb3dPolyline
 66
     1
 10
0.0
 20
0.0
 30
0.0
 70
     8
  0
VERTEX
  5
10000221
330
F4B6F
100
AcDbEntity
  8
VISIBLE
100
AcDbVertex
100
AcDb3dPolylineVertex
 10
217.953663136963
 20
1016.119853536236
 30
0.0
 70
    32
  0
VERTEX
  5
10000222
330
F4B6F
100
AcDbEntity
  8
VISIBLE
100
AcDbVertex
100
AcDb3dPolylineVertex
 10
218.9811993507231
 20
1016.301559699349
 30
0.0
 70
    32
  0
VERTEX
  5
10000223
330
F4B6F
100
AcDbEntity
  8
VISIBLE
100
AcDbVertex
100
AcDb3dPolylineVertex
 10
219.530394623655
 20
1016.699273699224
 30
0.0
 70
    32
  0
SEQEND
  5
10000226
330
F4B6F
100
AcDbEntity
  8
VISIBLE
  0
POLYLINE
  5
F4B70
102
{ACAD_XDICTIONARY
360
1000022A
102
}
330
1F
100
AcDbEntity
  8
VISIBLE
100
AcDb3dPolyline
 66
     1
 10
0.0
 20
0.0
 30
0.0
 70
     8
  0
VERTEX
  5
10000227
330
F4B70
100
AcDbEntity
  8
VISIBLE
100
AcDbVertex
100
AcDb3dPolylineVertex
 10
213.0515184486618
 20
1018.470882111237
 30
0.0
 70
    32
  0
VERTEX
  5
10000228
330
F4B70
100
AcDbEntity
  8
VISIBLE
100
AcDbVertex
100
AcDb3dPolylineVertex
 10
213.4111958075063
 20
1017.869832485359
 30
0.0
 70
    32
  0
VERTEX
  5
10000229
330
F4B70
100
AcDbEntity
  8
VISIBLE
100
AcDbVertex
100
AcDb3dPolylineVertex
 10
213.4975469194511
 20
1017.291199333355
 30
0.0
 70
    32
  0
SEQEND
  5
1000022C
330
F4B70
100
AcDbEntity
  8
VISIBLE
  0
POLYLINE
  5
F4B71
102
{ACAD_XDICTIONARY
360
10000230
102
}
330
1F
100
AcDbEntity
  8
VISIBLE
100
AcDb3dPolyline
 66
     1
 10
0.0
 20
0.0
 30
0.0
 70
     8
  0
VERTEX
  5
1000022D
330
F4B71
100
AcDbEntity
  8
VISIBLE
100
AcDbVertex
100
AcDb3dPolylineVertex
 10
211.3361846567946
 20
1019.402539711437
 30
0.0
 70
    32
  0
VERTEX
  5
1000022E
330
F4B71
100
AcDbEntity
  8
VISIBLE
100
AcDbVertex
100
AcDb3dPolylineVertex
 10
212.4996269961514
 20
1018.88235212937
 30
0.0
 70
    32
  0
VERTEX
  5
1000022F
330
F4B71
100
AcDbEntity
  8
VISIBLE
100
AcDbVertex
100
AcDb3dPolylineVertex
 10
213.0515184486618
 20
1018.470882111237
 30
0.0
 70
    32
  0
SEQEND
  5
10000232
330
F4B71
100
AcDbEntity
  8
VISIBLE
  0
POLYLINE
  5
F4B72
102
{ACAD_XDICTIONARY
360
10000236
102
}
330
1F
100
AcDbEntity
  8
VISIBLE
100
AcDb3dPolyline
 66
     1
 10
0.0
 20
0.0
 30
0.0
 70
     8
  0
VERTEX
  5
10000233
330
F4B72
100
AcDbEntity
  8
VISIBLE
100
AcDbVertex
100
AcDb3dPolylineVertex
 10
164.6793139425238
 20
1021.264812789242
 30
0.0
 70
    32
  0
VERTEX
  5
10000234
330
F4B72
100
AcDbEntity
  8
VISIBLE
100
AcDbVertex
100
AcDb3dPolylineVertex
 10
164.0931108119876
 20
1021.611884633174
 30
0.0
 70
    32
  0
VERTEX
  5
10000235
330
F4B72
100
AcDbEntity
  8
VISIBLE
100
AcDbVertex
100
AcDb3dPolylineVertex
 10
163.4339774411378
 20
1021.695209421102
 30
0.0
 70
    32
  0
SEQEND
  5
10000238
330
F4B72
100
AcDbEntity
  8
VISIBLE
  0
POLYLINE
  5
F4B73
102
{ACAD_XDICTIONARY
360
1000023C
102
}
330
1F
100
AcDbEntity
  8
VISIBLE
100
AcDb3dPolyline
 66
     1
 10
0.0
 20
0.0
 30
0.0
 70
     8
  0
VERTEX
  5
10000239
330
F4B73
100
AcDbEntity
  8
VISIBLE
100
AcDbVertex
100
AcDb3dPolylineVertex
 10
165.0763626513339
 20
1019.96320166771
 30
0.0
 70
    32
  0
VERTEX
  5
1000023A
330
F4B73
100
AcDbEntity
  8
VISIBLE
100
AcDbVertex
100
AcDb3dPolylineVertex
 10
164.9518481762511
 20
1020.800721415933
 30
0.0
 70
    32
  0
VERTEX
  5
1000023B
330
F4B73
100
AcDbEntity
  8
VISIBLE
100
AcDbVertex
100
AcDb3dPolylineVertex
 10
164.6793139425238
 20
1021.264812789242
 30
0.0
 70
    32
  0
SEQEND
  5
1000023E
330
F4B73
100
AcDbEntity
  8
VISIBLE
  0
LINE
  5
F4B74
102
{ACAD_XDICTIONARY
360
1000023F
102
}
330
1F
100
AcDbEntity
  8
VISIBLE
100
AcDbLine
 10
165.0763626513339
 20
1015.344514325331
 30
0.0
 11
165.0763626513339
 21
1019.96320166771
 31
0.0
  0
POLYLINE
  5
F4B75
102
{ACAD_XDICTIONARY
360
10000244
102
}
330
1F
100
AcDbEntity
  8
VISIBLE
100
AcDb3dPolyline
 66
     1
 10
0.0
 20
0.0
 30
0.0
 70
     8
  0
VERTEX
  5
10000241
330
F4B75
100
AcDbEntity
  8
VISIBLE
100
AcDbVertex
100
AcDb3dPolylineVertex
 10
153.3972947257832
 20
1020.998029404845
 30
0.0
 70
    32
  0
VERTEX
  5
10000242
330
F4B75
100
AcDbEntity
  8
VISIBLE
100
AcDbVertex
100
AcDb3dPolylineVertex
 10
152.9611439098012
 20
1020.003127468581
 30
0.0
 70
    32
  0
VERTEX
  5
10000243
330
F4B75
100
AcDbEntity
  8
VISIBLE
100
AcDbVertex
100
AcDb3dPolylineVertex
 10
152.8564330988214
 20
1018.921079072408
 30
0.0
 70
    32
  0
SEQEND
  5
10000246
330
F4B75
100
AcDbEntity
  8
VISIBLE
  0
POLYLINE
  5
F4B76
102
{ACAD_XDICTIONARY
360
1000024A
102
}
330
1F
100
AcDbEntity
  8
VISIBLE
100
AcDb3dPolyline
 66
     1
 10
0.0
 20
0.0
 30
0.0
 70
     8
  0
VERTEX
  5
10000247
330
F4B76
100
AcDbEntity
  8
VISIBLE
100
AcDbVertex
100
AcDb3dPolylineVertex
 10
154.9990371547625
 20
1021.695209421102
 30
0.0
 70
    32
  0
VERTEX
  5
10000248
330
F4B76
100
AcDbEntity
  8
VISIBLE
100
AcDbVertex
100
AcDb3dPolylineVertex
 10
153.9739286698004
 20
1021.476573768004
 30
0.0
 70
    32
  0
VERTEX
  5
10000249
330
F4B76
100
AcDbEntity
  8
VISIBLE
100
AcDbVertex
100
AcDb3dPolylineVertex
 10
153.3972947257832
 20
1020.998029404845
 30
0.0
 70
    32
  0
SEQEND
  5
1000024C
330
F4B76
100
AcDbEntity
  8
VISIBLE
  0
POLYLINE
  5
F4B77
102
{ACAD_XDICTIONARY
360
10000250
102
}
330
1F
100
AcDbEntity
  8
VISIBLE
100
AcDb3dPolyline
 66
     1
 10
0.0
 20
0.0
 30
0.0
 70
     8
  0
VERTEX
  5
1000024D
330
F4B77
100
AcDbEntity
  8
VISIBLE
100
AcDbVertex
100
AcDb3dPolylineVertex
 10
156.6247484034338
 20
1020.988650301487
 30
0.0
 70
    32
  0
VERTEX
  5
1000024E
330
F4B77
100
AcDbEntity
  8
VISIBLE
100
AcDbVertex
100
AcDb3dPolylineVertex
 10
155.8437667239491
 20
1021.558419575545
 30
0.0
 70
    32
  0
VERTEX
  5
1000024F
330
F4B77
100
AcDbEntity
  8
VISIBLE
100
AcDbVertex
100
AcDb3dPolylineVertex
 10
154.9990371547625
 20
1021.695209421102
 30
0.0
 70
    32
  0
SEQEND
  5
10000252
330
F4B77
100
AcDbEntity
  8
VISIBLE
  0
POLYLINE
  5
F4B78
102
{ACAD_XDICTIONARY
360
10000256
102
}
330
1F
100
AcDbEntity
  8
VISIBLE
100
AcDb3dPolyline
 66
     1
 10
0.0
 20
0.0
 30
0.0
 70
     8
  0
VERTEX
  5
10000253
330
F4B78
100
AcDbEntity
  8
VISIBLE
100
AcDbVertex
100
AcDb3dPolylineVertex
 10
157.1749891337533
 20
1018.921079072408
 30
0.0
 70
    32
  0
VERTEX
  5
10000254
330
F4B78
100
AcDbEntity
  8
VISIBLE
100
AcDbVertex
100
AcDb3dPolylineVertex
 10
157.0024336407251
 20
1020.240176177391
 30
0.0
 70
    32
  0
VERTEX
  5
10000255
330
F4B78
100
AcDbEntity
  8
VISIBLE
100
AcDbVertex
100
AcDb3dPolylineVertex
 10
156.6247484034338
 20
1020.988650301487
 30
0.0
 70
    32
  0
SEQEND
  5
10000258
330
F4B78
100
AcDbEntity
  8
VISIBLE
  0
POLYLINE
  5
F4B79
102
{ACAD_XDICTIONARY
360
1000025C
102
}
330
1F
100
AcDbEntity
  8
VISIBLE
100
AcDb3dPolyline
 66
     1
 10
0.0
 20
0.0
 30
0.0
 70
     8
  0
VERTEX
  5
10000259
330
F4B79
100
AcDbEntity
  8
VISIBLE
100
AcDbVertex
100
AcDb3dPolylineVertex
 10
156.6247484034338
 20
1016.832665391422
 30
0.0
 70
    32
  0
VERTEX
  5
1000025A
330
F4B79
100
AcDbEntity
  8
VISIBLE
100
AcDbVertex
100
AcDb3dPolylineVertex
 10
157.0684625283635
 20
1017.838865604015
 30
0.0
 70
    32
  0
VERTEX
  5
1000025B
330
F4B79
100
AcDbEntity
  8
VISIBLE
100
AcDbVertex
100
AcDb3dPolylineVertex
 10
157.1749891337533
 20
1018.921079072408
 30
0.0
 70
    32
  0
SEQEND
  5
1000025E
330
F4B79
100
AcDbEntity
  8
VISIBLE
  0
POLYLINE
  5
F4B7A
102
{ACAD_XDICTIONARY
360
10000262
102
}
330
1F
100
AcDbEntity
  8
VISIBLE
100
AcDb3dPolyline
 66
     1
 10
0.0
 20
0.0
 30
0.0
 70
     8
  0
VERTEX
  5
1000025F
330
F4B7A
100
AcDbEntity
  8
VISIBLE
100
AcDbVertex
100
AcDb3dPolylineVertex
 10
155.0115426259062
 20
1016.119853536236
 30
0.0
 70
    32
  0
VERTEX
  5
10000260
330
F4B7A
100
AcDbEntity
  8
VISIBLE
100
AcDbVertex
100
AcDb3dPolylineVertex
 10
156.041273133003
 20
1016.343391334022
 30
0.0
 70
    32
  0
VERTEX
  5
10000261
330
F4B7A
100
AcDbEntity
  8
VISIBLE
100
AcDbVertex
100
AcDb3dPolylineVertex
 10
156.6247484034338
 20
1016.832665391422
 30
0.0
 70
    32
  0
SEQEND
  5
10000264
330
F4B7A
100
AcDbEntity
  8
VISIBLE
  0
POLYLINE
  5
F4B7B
102
{ACAD_XDICTIONARY
360
10000268
102
}
330
1F
100
AcDbEntity
  8
VISIBLE
100
AcDb3dPolyline
 66
     1
 10
0.0
 20
0.0
 30
0.0
 70
     8
  0
VERTEX
  5
10000265
330
F4B7B
100
AcDbEntity
  8
VISIBLE
100
AcDbVertex
100
AcDb3dPolylineVertex
 10
153.403547461355
 20
1016.835791759208
 30
0.0
 70
    32
  0
VERTEX
  5
10000266
330
F4B7B
100
AcDbEntity
  8
VISIBLE
100
AcDbVertex
100
AcDb3dPolylineVertex
 10
154.1774327028148
 20
1016.258459176203
 30
0.0
 70
    32
  0
VERTEX
  5
10000267
330
F4B7B
100
AcDbEntity
  8
VISIBLE
100
AcDbVertex
100
AcDb3dPolylineVertex
 10
155.0115426259062
 20
1016.119853536236
 30
0.0
 70
    32
  0
SEQEND
  5
1000026A
330
F4B7B
100
AcDbEntity
  8
VISIBLE
  0
POLYLINE
  5
F4B7C
102
{ACAD_XDICTIONARY
360
1000026E
102
}
330
1F
100
AcDbEntity
  8
VISIBLE
100
AcDb3dPolyline
 66
     1
 10
0.0
 20
0.0
 30
0.0
 70
     8
  0
VERTEX
  5
1000026B
330
F4B7C
100
AcDbEntity
  8
VISIBLE
100
AcDbVertex
100
AcDb3dPolylineVertex
 10
152.8564330988214
 20
1018.921079072408
 30
0.0
 70
    32
  0
VERTEX
  5
1000026C
330
F4B7C
100
AcDbEntity
  8
VISIBLE
100
AcDbVertex
100
AcDb3dPolylineVertex
 10
153.028008162912
 20
1017.592317739325
 30
0.0
 70
    32
  0
VERTEX
  5
1000026D
330
F4B7C
100
AcDbEntity
  8
VISIBLE
100
AcDbVertex
100
AcDb3dPolylineVertex
 10
153.403547461355
 20
1016.835791759208
 30
0.0
 70
    32
  0
SEQEND
  5
10000270
330
F4B7C
100
AcDbEntity
  8
VISIBLE
  0
POLYLINE
  5
F4B7D
102
{ACAD_XDICTIONARY
360
10000274
102
}
330
1F
100
AcDbEntity
  8
VISIBLE
100
AcDb3dPolyline
 66
     1
 10
0.0
 20
0.0
 30
0.0
 70
     8
  0
VERTEX
  5
10000271
330
F4B7D
100
AcDbEntity
  8
VISIBLE
100
AcDbVertex
100
AcDb3dPolylineVertex
 10
157.4115509628869
 20
1021.617050226454
 30
0.0
 70
    32
  0
VERTEX
  5
10000272
330
F4B7D
100
AcDbEntity
  8
VISIBLE
100
AcDbVertex
100
AcDb3dPolylineVertex
 10
158.1233423716283
 20
1020.280118652224
 30
0.0
 70
    32
  0
VERTEX
  5
10000273
330
F4B7D
100
AcDbEntity
  8
VISIBLE
100
AcDbVertex
100
AcDb3dPolylineVertex
 10
158.2942288011078
 20
1018.921079072408
 30
0.0
 70
    32
  0
SEQEND
  5
10000276
330
F4B7D
100
AcDbEntity
  8
VISIBLE
  0
POLYLINE
  5
F4B7E
102
{ACAD_XDICTIONARY
360
1000027A
102
}
330
1F
100
AcDbEntity
  8
VISIBLE
100
AcDb3dPolyline
 66
     1
 10
0.0
 20
0.0
 30
0.0
 70
     8
  0
VERTEX
  5
10000277
330
F4B7E
100
AcDbEntity
  8
VISIBLE
100
AcDbVertex
100
AcDb3dPolylineVertex
 10
155.0323850778122
 20
1022.614361550159
 30
0.0
 70
    32
  0
VERTEX
  5
10000278
330
F4B7E
100
AcDbEntity
  8
VISIBLE
100
AcDbVertex
100
AcDb3dPolylineVertex
 10
156.5159608088612
 20
1022.301604719045
 30
0.0
 70
    32
  0
VERTEX
  5
10000279
330
F4B7E
100
AcDbEntity
  8
VISIBLE
100
AcDbVertex
100
AcDb3dPolylineVertex
 10
157.4115509628869
 20
1021.617050226454
 30
0.0
 70
    32
  0
SEQEND
  5
1000027C
330
F4B7E
100
AcDbEntity
  8
VISIBLE
  0
POLYLINE
  5
F4B7F
102
{ACAD_XDICTIONARY
360
10000280
102
}
330
1F
100
AcDbEntity
  8
VISIBLE
100
AcDb3dPolyline
 66
     1
 10
0.0
 20
0.0
 30
0.0
 70
     8
  0
VERTEX
  5
1000027D
330
F4B7F
100
AcDbEntity
  8
VISIBLE
100
AcDbVertex
100
AcDb3dPolylineVertex
 10
152.6084079211395
 20
1021.639976923551
 30
0.0
 70
    32
  0
VERTEX
  5
1000027E
330
F4B7F
100
AcDbEntity
  8
VISIBLE
100
AcDbVertex
100
AcDb3dPolylineVertex
 10
153.7989287740126
 20
1022.425720686448
 30
0.0
 70
    32
  0
VERTEX
  5
1000027F
330
F4B7F
100
AcDbEntity
  8
VISIBLE
100
AcDbVertex
100
AcDb3dPolylineVertex
 10
155.0323850778122
 20
1022.614361550159
 30
0.0
 70
    32
  0
SEQEND
  5
10000282
330
F4B7F
100
AcDbEntity
  8
VISIBLE
  0
POLYLINE
  5
F4B80
102
{ACAD_XDICTIONARY
360
10000286
102
}
330
1F
100
AcDbEntity
  8
VISIBLE
100
AcDb3dPolyline
 66
     1
 10
0.0
 20
0.0
 30
0.0
 70
     8
  0
VERTEX
  5
10000283
330
F4B80
100
AcDbEntity
  8
VISIBLE
100
AcDbVertex
100
AcDb3dPolylineVertex
 10
151.7351091862763
 20
1018.921079072408
 30
0.0
 70
    32
  0
VERTEX
  5
10000284
330
F4B80
100
AcDbEntity
  8
VISIBLE
100
AcDbVertex
100
AcDb3dPolylineVertex
 10
152.0089756695294
 20
1020.633421555578
 30
0.0
 70
    32
  0
VERTEX
  5
10000285
330
F4B80
100
AcDbEntity
  8
VISIBLE
100
AcDbVertex
100
AcDb3dPolylineVertex
 10
152.6084079211395
 20
1021.639976923551
 30
0.0
 70
    32
  0
SEQEND
  5
10000288
330
F4B80
100
AcDbEntity
  8
VISIBLE
  0
POLYLINE
  5
F4B81
102
{ACAD_XDICTIONARY
360
1000028C
102
}
330
1F
100
AcDbEntity
  8
VISIBLE
100
AcDb3dPolyline
 66
     1
 10
0.0
 20
0.0
 30
0.0
 70
     8
  0
VERTEX
  5
10000289
330
F4B81
100
AcDbEntity
  8
VISIBLE
100
AcDbVertex
100
AcDb3dPolylineVertex
 10
152.1394527532536
 20
1016.953551612477
 30
0.0
 70
    32
  0
VERTEX
  5
1000028A
330
F4B81
100
AcDbEntity
  8
VISIBLE
100
AcDbVertex
100
AcDb3dPolylineVertex
 10
151.8133901008431
 20
1017.984495983973
 30
0.0
 70
    32
  0
VERTEX
  5
1000028B
330
F4B81
100
AcDbEntity
  8
VISIBLE
100
AcDbVertex
100
AcDb3dPolylineVertex
 10
151.7351091862763
 20
1018.921079072408
 30
0.0
 70
    32
  0
SEQEND
  5
1000028E
330
F4B81
100
AcDbEntity
  8
VISIBLE
  0
POLYLINE
  5
F4B82
102
{ACAD_XDICTIONARY
360
10000292
102
}
330
1F
100
AcDbEntity
  8
VISIBLE
100
AcDb3dPolyline
 66
     1
 10
0.0
 20
0.0
 30
0.0
 70
     8
  0
VERTEX
  5
1000028F
330
F4B82
100
AcDbEntity
  8
VISIBLE
100
AcDbVertex
100
AcDb3dPolylineVertex
 10
153.2857876080859
 20
1015.663403839493
 30
0.0
 70
    32
  0
VERTEX
  5
10000290
330
F4B82
100
AcDbEntity
  8
VISIBLE
100
AcDbVertex
100
AcDb3dPolylineVertex
 10
152.5606436909555
 20
1016.289851243566
 30
0.0
 70
    32
  0
VERTEX
  5
10000291
330
F4B82
100
AcDbEntity
  8
VISIBLE
100
AcDbVertex
100
AcDb3dPolylineVertex
 10
152.1394527532536
 20
1016.953551612477
 30
0.0
 70
    32
  0
SEQEND
  5
10000294
330
F4B82
100
AcDbEntity
  8
VISIBLE
  0
POLYLINE
  5
F4B83
102
{ACAD_XDICTIONARY
360
10000298
102
}
330
1F
100
AcDbEntity
  8
VISIBLE
100
AcDb3dPolyline
 66
     1
 10
0.0
 20
0.0
 30
0.0
 70
     8
  0
VERTEX
  5
10000295
330
F4B83
100
AcDbEntity
  8
VISIBLE
100
AcDbVertex
100
AcDb3dPolylineVertex
 10
154.9865316836189
 20
1015.213206878323
 30
0.0
 70
    32
  0
VERTEX
  5
10000296
330
F4B83
100
AcDbEntity
  8
VISIBLE
100
AcDbVertex
100
AcDb3dPolylineVertex
 10
153.9807049677641
 20
1015.354388645346
 30
0.0
 70
    32
  0
VERTEX
  5
10000297
330
F4B83
100
AcDbEntity
  8
VISIBLE
100
AcDbVertex
100
AcDb3dPolylineVertex
 10
153.2857876080859
 20
1015.663403839493
 30
0.0
 70
    32
  0
SEQEND
  5
1000029A
330
F4B83
100
AcDbEntity
  8
VISIBLE
  0
POLYLINE
  5
F4B84
102
{ACAD_XDICTIONARY
360
1000029E
102
}
330
1F
100
AcDbEntity
  8
VISIBLE
100
AcDb3dPolyline
 66
     1
 10
0.0
 20
0.0
 30
0.0
 70
     8
  0
VERTEX
  5
1000029B
330
F4B84
100
AcDbEntity
  8
VISIBLE
100
AcDbVertex
100
AcDb3dPolylineVertex
 10
157.4157194532681
 20
1016.193844240502
 30
0.0
 70
    32
  0
VERTEX
  5
1000029C
330
F4B84
100
AcDbEntity
  8
VISIBLE
100
AcDbVertex
100
AcDb3dPolylineVertex
 10
156.2209967620907
 20
1015.403058271641
 30
0.0
 70
    32
  0
VERTEX
  5
1000029D
330
F4B84
100
AcDbEntity
  8
VISIBLE
100
AcDbVertex
100
AcDb3dPolylineVertex
 10
154.9865316836189
 20
1015.213206878323
 30
0.0
 70
    32
  0
SEQEND
  5
100002A0
330
F4B84
100
AcDbEntity
  8
VISIBLE
  0
POLYLINE
  5
F4B85
102
{ACAD_XDICTIONARY
360
100002A4
102
}
330
1F
100
AcDbEntity
  8
VISIBLE
100
AcDb3dPolyline
 66
     1
 10
0.0
 20
0.0
 30
0.0
 70
     8
  0
VERTEX
  5
100002A1
330
F4B85
100
AcDbEntity
  8
VISIBLE
100
AcDbVertex
100
AcDb3dPolylineVertex
 10
158.2942288011078
 20
1018.921079072408
 30
0.0
 70
    32
  0
VERTEX
  5
100002A2
330
F4B85
100
AcDbEntity
  8
VISIBLE
100
AcDbVertex
100
AcDb3dPolylineVertex
 10
158.0187282696253
 20
1017.205094996041
 30
0.0
 70
    32
  0
VERTEX
  5
100002A3
330
F4B85
100
AcDbEntity
  8
VISIBLE
100
AcDbVertex
100
AcDb3dPolylineVertex
 10
157.4157194532681
 20
1016.193844240502
 30
0.0
 70
    32
  0
SEQEND
  5
100002A6
330
F4B85
100
AcDbEntity
  8
VISIBLE
  0
LINE
  5
F4B86
102
{ACAD_XDICTIONARY
360
100002A7
102
}
330
1F
100
AcDbEntity
  8
VISIBLE
100
AcDbLine
 10
211.0254615545273
 20
1057.395219802856
 30
0.0
 11
211.0254615545273
 21
1031.995219802856
 31
0.0
  0
LINE
  5
F4B87
102
{ACAD_XDICTIONARY
360
100002A9
102
}
330
1F
100
AcDbEntity
  8
VISIBLE
100
AcDbLine
 10
185.6254615545273
 20
1057.395219802856
 30
0.0
 11
185.6254615545273
 21
1031.995219802856
 31
0.0
  0
ARC
  5
F4B88
102
{ACAD_XDICTIONARY
360
100002AE
102
}
330
1F
100
AcDbEntity
  8
VISIBLE
100
AcDbCircle
 10
-9.999999999999972
 20
1066.8
 30
0.0
 40
9.999999999999915
100
AcDbArc
 50
0.0
 51
90.0000000000005
  0
ARC
  5
F4B89
102
{ACAD_XDICTIONARY
360
100002B0
102
}
330
1F
100
AcDbEntity
  8
VISIBLE
100
AcDbCircle
 10
-553.4000000000001
 20
502.5999999999999
 30
0.0
 40
10.00000000000001
100
AcDbArc
 50
270.0
 51
0.0
  0
ARC
  5
F4B8A
102
{ACAD_XDICTIONARY
360
100002B2
102
}
330
1F
100
AcDbEntity
  8
VISIBLE
100
AcDbCircle
 10
-1066.8
 20
502.6
 30
0.0
 40
10.00000000000023
100
AcDbArc
 50
180.0000000000006
 51
269.9999999999987
  0
ARC
  5
F4B8B
102
{ACAD_XDICTIONARY
360
100002B4
102
}
330
1F
100
AcDbEntity
  8
VISIBLE
100
AcDbCircle
 10
-523.4000000000002
 20
1066.8
 30
0.0
 40
9.999999999999787
100
AcDbArc
 50
89.99999999999935
 51
180.0000000000013
  0
ARC
  5
F4B8C
102
{ACAD_XDICTIONARY
360
100002B6
102
}
330
1F
100
AcDbEntity
  8
VISIBLE
100
AcDbCircle
 10
-553.4000000000001
 20
1066.8
 30
0.0
 40
9.999999999999897
100
AcDbArc
 50
0.0
 51
90.00000000000065
  0
ARC
  5
F4B8D
102
{ACAD_XDICTIONARY
360
100002B8
102
}
330
1F
100
AcDbEntity
  8
VISIBLE
100
AcDbCircle
 10
-1066.8
 20
1066.8
 30
0.0
 40
10.0
100
AcDbArc
 50
90.0
 51
180.0
  0
LINE
  5
F4B8E
102
{ACAD_XDICTIONARY
360
100002BA
102
}
330
1F
100
AcDbEntity
  8
VISIBLE
100
AcDbLine
 10
-720.1000000000001
 20
90.00000000000006
 30
0.0
 11
-720.1000000000001
 21
59.99999999999999
 31
0.0
  0
LINE
  5
F4B8F
102
{ACAD_XDICTIONARY
360
100002BF
102
}
330
1F
100
AcDbEntity
  8
VISIBLE
100
AcDbLine
 10
-900.1000000000001
 20
89.99999999999996
 30
0.0
 11
-900.1000000000001
 21
59.99999999999991
 31
0.0
  0
LINE
  5
F4B90
102
{ACAD_XDICTIONARY
360
100002C4
102
}
330
1F
100
AcDbEntity
  8
VISIBLE
100
AcDbLine
 10
-870.1000000000001
 20
29.99999999999994
 30
0.0
 11
-750.1000000000003
 21
29.99999999999997
 31
0.0
  0
LINE
  5
F4B91
102
{ACAD_XDICTIONARY
360
100002C9
102
}
330
1F
100
AcDbEntity
  8
VISIBLE
100
AcDbLine
 10
-870.1000000000001
 20
119.9999999999999
 30
0.0
 11
-750.1000000000003
 21
120.0
 31
0.0
  0
LINE
  5
F4B92
102
{ACAD_XDICTIONARY
360
100002CE
102
}
330
1F
100
AcDbEntity
  8
VISIBLE
100
AcDbLine
 10
-1076.8
 20
9.999999999999993
 30
0.0
 11
-1076.8
 21
472.5999999999999
 31
0.0
  0
ARC
  5
F4B93
102
{ACAD_XDICTIONARY
360
100002D3
102
}
330
1F
100
AcDbEntity
  8
VISIBLE
100
AcDbCircle
 10
-9.999999999999986
 20
502.5999999999999
 30
0.0
 40
10.00000000000001
100
AcDbArc
 50
269.9999999999999
 51
0.0
  0
ARC
  5
F4B94
102
{ACAD_XDICTIONARY
360
100002D5
102
}
330
1F
100
AcDbEntity
  8
VISIBLE
100
AcDbCircle
 10
-523.4000000000001
 20
502.5999999999999
 30
0.0
 40
10.00000000000001
100
AcDbArc
 50
180.0
 51
270.0
  0
LINE
  5
F4B95
102
{ACAD_XDICTIONARY
360
100002D7
102
}
330
1F
100
AcDbEntity
  8
VISIBLE
100
AcDbLine
 10
9.999999999999876
 20
502.5999999999999
 30
0.0
 11
9.99999999999979
 21
965.1999999999999
 31
0.0
  0
LINE
  5
F4B96
102
{ACAD_XDICTIONARY
360
100002DC
102
}
330
1F
100
AcDbEntity
  8
VISIBLE
100
AcDbLine
 10
169.1260510566779
 20
1019.598458759354
 30
0.0
 11
172.8589341930501
 21
1019.598458759354
 31
0.0
  0
LINE
  5
F4B97
102
{ACAD_XDICTIONARY
360
100002E1
102
}
330
1F
100
AcDbEntity
  8
VISIBLE
100
AcDbLine
 10
594.1999999999998
 20
502.5999999999999
 30
0.0
 11
594.1999999999998
 21
965.1999999999999
 31
0.0
  0
POLYLINE
  5
F4B98
102
{ACAD_XDICTIONARY
360
100002E9
102
}
330
1F
100
AcDbEntity
  8
VISIBLE
100
AcDb3dPolyline
 66
     1
 10
0.0
 20
0.0
 30
0.0
 70
     8
  0
VERTEX
  5
100002E6
330
F4B98
100
AcDbEntity
  8
VISIBLE
100
AcDbVertex
100
AcDb3dPolylineVertex
 10
172.8589341930501
 20
1019.598458759354
 30
0.0
 70
    32
  0
VERTEX
  5
100002E7
330
F4B98
100
AcDbEntity
  8
VISIBLE
100
AcDbVertex
100
AcDb3dPolylineVertex
 10
172.7161183777976
 20
1020.592613702142
 30
0.0
 70
    32
  0
VERTEX
  5
100002E8
330
F4B98
100
AcDbEntity
  8
VISIBLE
100
AcDbVertex
100
AcDb3dPolylineVertex
 10
172.4035266189031
 20
1021.163726897498
 30
0.0
 70
    32
  0
SEQEND
  5
100002EB
330
F4B98
100
AcDbEntity
  8
VISIBLE
  0
LINE
  5
F4B99
102
{ACAD_XDICTIONARY
360
100002EC
102
}
330
1F
100
AcDbEntity
  8
VISIBLE
100
AcDbLine
 10
-553.4
 20
-0.0000000000000058
 30
0.0
 11
-1066.8
 21
-0.0000000000000058
 31
0.0
  0
POLYLINE
  5
F4B9A
102
{ACAD_XDICTIONARY
360
100002F1
102
}
330
1F
100
AcDbEntity
  8
VISIBLE
100
AcDb3dPolyline
 66
     1
 10
0.0
 20
0.0
 30
0.0
 70
     8
  0
VERTEX
  5
100002EE
330
F4B9A
100
AcDbEntity
  8
VISIBLE
100
AcDbVertex
100
AcDb3dPolylineVertex
 10
172.4035266189031
 20
1021.163726897498
 30
0.0
 70
    32
  0
VERTEX
  5
100002EF
330
F4B9A
100
AcDbEntity
  8
VISIBLE
100
AcDbVertex
100
AcDb3dPolylineVertex
 10
171.7702628993591
 20
1021.602398816463
 30
0.0
 70
    32
  0
VERTEX
  5
100002F0
330
F4B9A
100
AcDbEntity
  8
VISIBLE
100
AcDbVertex
100
AcDb3dPolylineVertex
 10
171.0998312521801
 20
1021.707714892246
 30
0.0
 70
    32
  0
SEQEND
  5
100002F3
330
F4B9A
100
AcDbEntity
  8
VISIBLE
  0
LINE
  5
F4B9B
102
{ACAD_XDICTIONARY
360
100002F4
102
}
330
1F
100
AcDbEntity
  8
VISIBLE
100
AcDbLine
 10
-553.4000000000001
 20
482.6
 30
0.0
 11
-1066.8
 21
482.5999999999999
 31
0.0
  0
LINE
  5
F4B9C
102
{ACAD_XDICTIONARY
360
100002F6
102
}
330
1F
100
AcDbEntity
  8
VISIBLE
100
AcDbLine
 10
180.4101545186092
 20
1015.344514325331
 30
0.0
 11
179.3284312646856
 21
1015.344514325331
 31
0.0
  0
LINE
  5
F4B9D
102
{ACAD_XDICTIONARY
360
100002FB
102
}
330
1F
100
AcDbEntity
  8
VISIBLE
100
AcDbLine
 10
-543.4
 20
10.00000000000001
 30
0.0
 11
-543.4000000000001
 21
472.6
 31
0.0
  0
LINE
  5
F4B9E
102
{ACAD_XDICTIONARY
360
10000300
102
}
330
1F
100
AcDbEntity
  8
VISIBLE
100
AcDbLine
 10
179.3284312646856
 20
1015.344514325331
 30
0.0
 11
179.3284312646856
 21
1022.483054103151
 31
0.0
  0
POLYLINE
  5
F4B9F
102
{ACAD_XDICTIONARY
360
10000308
102
}
330
1F
100
AcDbEntity
  8
VISIBLE
100
AcDb3dPolyline
 66
     1
 10
0.0
 20
0.0
 30
0.0
 70
     8
  0
VERTEX
  5
10000305
330
F4B9F
100
AcDbEntity
  8
VISIBLE
100
AcDbVertex
100
AcDb3dPolylineVertex
 10
163.4339774411378
 20
1021.695209421102
 30
0.0
 70
    32
  0
VERTEX
  5
10000306
330
F4B9F
100
AcDbEntity
  8
VISIBLE
100
AcDbVertex
100
AcDb3dPolylineVertex
 10
162.3680177504398
 20
1021.505333016842
 30
0.0
 70
    32
  0
VERTEX
  5
10000307
330
F4B9F
100
AcDbEntity
  8
VISIBLE
100
AcDbVertex
100
AcDb3dPolylineVertex
 10
161.7936764761323
 20
1021.089736193232
 30
0.0
 70
    32
  0
SEQEND
  5
1000030A
330
F4B9F
100
AcDbEntity
  8
VISIBLE
  0
LINE
  5
F4BA0
102
{ACAD_XDICTIONARY
360
1000030B
102
}
330
1F
100
AcDbEntity
  8
VISIBLE
100
AcDbLine
 10
-523.4000000000001
 20
482.6
 30
0.0
 11
-10.00000000000001
 21
482.6
 31
0.0
  0
POLYLINE
  5
F4BA1
102
{ACAD_XDICTIONARY
360
10000310
102
}
330
1F
100
AcDbEntity
  8
VISIBLE
100
AcDb3dPolyline
 66
     1
 10
0.0
 20
0.0
 30
0.0
 70
     8
  0
VERTEX
  5
1000030D
330
F4BA1
100
AcDbEntity
  8
VISIBLE
100
AcDbVertex
100
AcDb3dPolylineVertex
 10
212.000016750002
 20
1016.377257817275
 30
0.0
 70
    32
  0
VERTEX
  5
1000030E
330
F4BA1
100
AcDbEntity
  8
VISIBLE
100
AcDbVertex
100
AcDb3dPolylineVertex
 10
212.3672574177942
 20
1016.768775773048
 30
0.0
 70
    32
  0
VERTEX
  5
1000030F
330
F4BA1
100
AcDbEntity
  8
VISIBLE
100
AcDbVertex
100
AcDb3dPolylineVertex
 10
212.455424324149
 20
1017.201576790159
 30
0.0
 70
    32
  0
SEQEND
  5
10000312
330
F4BA1
100
AcDbEntity
  8
VISIBLE
  0
POLYLINE
  5
F4BA2
102
{ACAD_XDICTIONARY
360
10000316
102
}
330
1F
100
AcDbEntity
  8
VISIBLE
100
AcDb3dPolyline
 66
     1
 10
0.0
 20
0.0
 30
0.0
 70
     8
  0
VERTEX
  5
10000313
330
F4BA2
100
AcDbEntity
  8
VISIBLE
100
AcDbVertex
100
AcDb3dPolylineVertex
 10
161.7936764761323
 20
1021.089736193232
 30
0.0
 70
    32
  0
VERTEX
  5
10000314
330
F4BA2
100
AcDbEntity
  8
VISIBLE
100
AcDbVertex
100
AcDb3dPolylineVertex
 10
161.3734926457065
 20
1020.16421127608
 30
0.0
 70
    32
  0
VERTEX
  5
10000315
330
F4BA2
100
AcDbEntity
  8
VISIBLE
100
AcDbVertex
100
AcDb3dPolylineVertex
 10
161.2726151784812
 20
1019.089902932847
 30
0.0
 70
    32
  0
SEQEND
  5
10000318
330
F4BA2
100
AcDbEntity
  8
VISIBLE
  0
LINE
  5
F4BA3
102
{ACAD_XDICTIONARY
360
10000319
102
}
330
1F
100
AcDbEntity
  8
VISIBLE
100
AcDbLine
 10
-523.4000000000001
 20
0.0
 30
0.0
 11
-10.00000000000001
 21
0.0
 31
0.0
  0
POLYLINE
  5
F4BA4
102
{ACAD_XDICTIONARY
360
1000031E
102
}
330
1F
100
AcDbEntity
  8
VISIBLE
100
AcDb3dPolyline
 66
     1
 10
0.0
 20
0.0
 30
0.0
 70
     8
  0
VERTEX
  5
1000031B
330
F4BA4
100
AcDbEntity
  8
VISIBLE
100
AcDbVertex
100
AcDb3dPolylineVertex
 10
212.455424324149
 20
1017.201576790159
 30
0.0
 70
    32
  0
VERTEX
  5
1000031C
330
F4BA4
100
AcDbEntity
  8
VISIBLE
100
AcDbVertex
100
AcDb3dPolylineVertex
 10
212.3423481866722
 20
1017.630537793932
 30
0.0
 70
    32
  0
VERTEX
  5
1000031D
330
F4BA4
100
AcDbEntity
  8
VISIBLE
100
AcDbVertex
100
AcDb3dPolylineVertex
 10
212.0948499061745
 20
1017.914388645346
 30
0.0
 70
    32
  0
SEQEND
  5
10000320
330
F4BA4
100
AcDbEntity
  8
VISIBLE
  0
ARC
  5
F4BA5
102
{ACAD_XDICTIONARY
360
10000321
102
}
330
1F
100
AcDbEntity
  8
VISIBLE
100
AcDbCircle
 10
-523.4000000000001
 20
472.6
 30
0.0
 40
10.00000000000001
100
AcDbArc
 50
90.0
 51
180.0
  0
LINE
  5
F4BA6
102
{ACAD_XDICTIONARY
360
10000323
102
}
330
1F
100
AcDbEntity
  8
VISIBLE
100
AcDbLine
 10
-543.4000000000002
 20
1066.8
 30
0.0
 11
-543.4
 21
502.5999999999999
 31
0.0
  0
POLYLINE
  5
F4BA7
102
{ACAD_XDICTIONARY
360
10000328
102
}
330
1F
100
AcDbEntity
  8
VISIBLE
100
AcDb3dPolyline
 66
     1
 10
0.0
 20
0.0
 30
0.0
 70
     8
  0
VERTEX
  5
10000325
330
F4BA7
100
AcDbEntity
  8
VISIBLE
100
AcDbVertex
100
AcDb3dPolylineVertex
 10
173.7113904760072
 20
1015.675909310637
 30
0.0
 70
    32
  0
VERTEX
  5
10000326
330
F4BA7
100
AcDbEntity
  8
VISIBLE
100
AcDbVertex
100
AcDb3dPolylineVertex
 10
173.0890515360543
 20
1015.443594339504
 30
0.0
 70
    32
  0
VERTEX
  5
10000327
330
F4BA7
100
AcDbEntity
  8
VISIBLE
100
AcDbVertex
100
AcDb3dPolylineVertex
 10
172.627582976893
 20
1015.321587628234
 30
0.0
 70
    32
  0
SEQEND
  5
1000032A
330
F4BA7
100
AcDbEntity
  8
VISIBLE
  0
LINE
  5
F4BA8
102
{ACAD_XDICTIONARY
360
1000032B
102
}
330
1F
100
AcDbEntity
  8
VISIBLE
100
AcDbLine
 10
-523.4000000000001
 20
1076.8
 30
0.0
 11
-10.00000000000006
 21
1076.8
 31
0.0
  0
POLYLINE
  5
F4BA9
102
{ACAD_XDICTIONARY
360
10000330
102
}
330
1F
100
AcDbEntity
  8
VISIBLE
100
AcDb3dPolyline
 66
     1
 10
0.0
 20
0.0
 30
0.0
 70
     8
  0
VERTEX
  5
1000032D
330
F4BA9
100
AcDbEntity
  8
VISIBLE
100
AcDbVertex
100
AcDb3dPolylineVertex
 10
211.0944122146845
 20
1022.614361550159
 30
0.0
 70
    32
  0
VERTEX
  5
1000032E
330
F4BA9
100
AcDbEntity
  8
VISIBLE
100
AcDbVertex
100
AcDb3dPolylineVertex
 10
212.3696234529345
 20
1022.46729720951
 30
0.0
 70
    32
  0
VERTEX
  5
1000032F
330
F4BA9
100
AcDbEntity
  8
VISIBLE
100
AcDbVertex
100
AcDb3dPolylineVertex
 10
213.3495655109182
 20
1022.145406382273
 30
0.0
 70
    32
  0
SEQEND
  5
10000332
330
F4BA9
100
AcDbEntity
  8
VISIBLE
  0
ARC
  5
F4BAA
102
{ACAD_XDICTIONARY
360
10000333
102
}
330
1F
100
AcDbEntity
  8
VISIBLE
100
AcDbCircle
 10
584.1999999999998
 20
502.5999999999999
 30
0.0
 40
10.00000000000001
100
AcDbArc
 50
270.0
 51
0.0
  0
LINE
  5
F4BAB
102
{ACAD_XDICTIONARY
360
10000335
102
}
330
1F
100
AcDbEntity
  8
VISIBLE
100
AcDbLine
 10
-1076.8
 20
1066.8
 30
0.0
 11
-1076.8
 21
502.5999999999999
 31
0.0
  0
POLYLINE
  5
F4BAC
102
{ACAD_XDICTIONARY
360
1000033A
102
}
330
1F
100
AcDbEntity
  8
VISIBLE
100
AcDb3dPolyline
 66
     1
 10
0.0
 20
0.0
 30
0.0
 70
     8
  0
VERTEX
  5
10000337
330
F4BAC
100
AcDbEntity
  8
VISIBLE
100
AcDbVertex
100
AcDb3dPolylineVertex
 10
172.627582976893
 20
1015.321587628234
 30
0.0
 70
    32
  0
VERTEX
  5
10000338
330
F4BAC
100
AcDbEntity
  8
VISIBLE
100
AcDbVertex
100
AcDb3dPolylineVertex
 10
171.9889969288303
 20
1015.234189391506
 30
0.0
 70
    32
  0
VERTEX
  5
10000339
330
F4BAC
100
AcDbEntity
  8
VISIBLE
100
AcDbVertex
100
AcDb3dPolylineVertex
 10
171.3937098240553
 20
1015.213206878323
 30
0.0
 70
    32
  0
SEQEND
  5
1000033C
330
F4BAC
100
AcDbEntity
  8
VISIBLE
  0
LINE
  5
F4BAD
102
{ACAD_XDICTIONARY
360
1000033D
102
}
330
1F
100
AcDbEntity
  8
VISIBLE
100
AcDbLine
 10
-523.4000000000001
 20
492.5999999999999
 30
0.0
 11
-10.00000000000001
 21
492.5999999999999
 31
0.0
  0
LINE
  5
F4BAE
102
{ACAD_XDICTIONARY
360
1000033F
102
}
330
1F
100
AcDbEntity
  8
VISIBLE
100
AcDbLine
 10
213.3495655109182
 20
1022.145406382273
 30
0.0
 11
212.9639801506565
 21
1021.265854911838
 31
0.0
  0
ARC
  5
F4BAF
102
{ACAD_XDICTIONARY
360
10000344
102
}
330
1F
100
AcDbEntity
  8
VISIBLE
100
AcDbCircle
 10
584.1999999999999
 20
9.999999999999964
 30
0.0
 40
9.999999999999964
100
AcDbArc
 50
270.0
 51
0.0
  0
LINE
  5
F4BB0
102
{ACAD_XDICTIONARY
360
10000349
102
}
330
1F
100
AcDbEntity
  8
VISIBLE
100
AcDbLine
 10
19.99999999999985
 20
492.5999999999999
 30
0.0
 11
584.1999999999998
 21
492.5999999999999
 31
0.0
  0
POLYLINE
  5
F4BB1
102
{ACAD_XDICTIONARY
360
10000351
102
}
330
1F
100
AcDbEntity
  8
VISIBLE
100
AcDb3dPolyline
 66
     1
 10
0.0
 20
0.0
 30
0.0
 70
     8
  0
VERTEX
  5
1000034E
330
F4BB1
100
AcDbEntity
  8
VISIBLE
100
AcDbVertex
100
AcDb3dPolylineVertex
 10
171.0998312521801
 20
1021.707714892246
 30
0.0
 70
    32
  0
VERTEX
  5
1000034F
330
F4BB1
100
AcDbEntity
  8
VISIBLE
100
AcDbVertex
100
AcDb3dPolylineVertex
 10
170.246904763508
 20
1021.532218112405
 30
0.0
 70
    32
  0
VERTEX
  5
10000350
330
F4BB1
100
AcDbEntity
  8
VISIBLE
100
AcDbVertex
100
AcDb3dPolylineVertex
 10
169.7294400393579
 20
1021.148095058569
 30
0.0
 70
    32
  0
SEQEND
  5
10000353
330
F4BB1
100
AcDbEntity
  8
VISIBLE
  0
LINE
  5
F4BB2
102
{ACAD_XDICTIONARY
360
10000354
102
}
330
1F
100
AcDbEntity
  8
VISIBLE
100
AcDbLine
 10
-533.4000000000001
 20
1066.8
 30
0.0
 11
-533.4000000000001
 21
502.5999999999999
 31
0.0
  0
POLYLINE
  5
F4BB3
102
{ACAD_XDICTIONARY
360
10000359
102
}
330
1F
100
AcDbEntity
  8
VISIBLE
100
AcDb3dPolyline
 66
     1
 10
0.0
 20
0.0
 30
0.0
 70
     8
  0
VERTEX
  5
10000356
330
F4BB3
100
AcDbEntity
  8
VISIBLE
100
AcDbVertex
100
AcDb3dPolylineVertex
 10
212.9639801506565
 20
1021.265854911838
 30
0.0
 70
    32
  0
VERTEX
  5
10000357
330
F4BB3
100
AcDbEntity
  8
VISIBLE
100
AcDbVertex
100
AcDb3dPolylineVertex
 10
211.8245349767262
 20
1021.622170800039
 30
0.0
 70
    32
  0
VERTEX
  5
10000358
330
F4BB3
100
AcDbEntity
  8
VISIBLE
100
AcDbVertex
100
AcDb3dPolylineVertex
 10
211.0172951426321
 20
1021.707714892246
 30
0.0
 70
    32
  0
SEQEND
  5
1000035B
330
F4BB3
100
AcDbEntity
  8
VISIBLE
  0
ARC
  5
F4BB4
102
{ACAD_XDICTIONARY
360
1000035C
102
}
330
1F
100
AcDbEntity
  8
VISIBLE
100
AcDbCircle
 10
584.1999999999998
 20
472.6000000000001
 30
0.0
 40
10.00000000000001
100
AcDbArc
 50
0.0
 51
90.0
  0
LINE
  5
F4BB5
102
{ACAD_XDICTIONARY
360
1000035E
102
}
330
1F
100
AcDbEntity
  8
VISIBLE
100
AcDbLine
 10
19.99999999999979
 20
975.1999999999999
 30
0.0
 11
584.1999999999997
 21
975.1999999999999
 31
0.0
  0
POLYLINE
  5
F4BB6
102
{ACAD_XDICTIONARY
360
10000363
102
}
330
1F
100
AcDbEntity
  8
VISIBLE
100
AcDb3dPolyline
 66
     1
 10
0.0
 20
0.0
 30
0.0
 70
     8
  0
VERTEX
  5
10000360
330
F4BB6
100
AcDbEntity
  8
VISIBLE
100
AcDbVertex
100
AcDb3dPolylineVertex
 10
169.7294400393579
 20
1021.148095058569
 30
0.0
 70
    32
  0
VERTEX
  5
10000361
330
F4BB6
100
AcDbEntity
  8
VISIBLE
100
AcDbVertex
100
AcDb3dPolylineVertex
 10
169.2880602690417
 20
1020.386348461099
 30
0.0
 70
    32
  0
VERTEX
  5
10000362
330
F4BB6
100
AcDbEntity
  8
VISIBLE
100
AcDbVertex
100
AcDb3dPolylineVertex
 10
169.1260510566779
 20
1019.598458759354
 30
0.0
 70
    32
  0
SEQEND
  5
10000365
330
F4BB6
100
AcDbEntity
  8
VISIBLE
  0
LINE
  5
F4BB7
102
{ACAD_XDICTIONARY
360
10000366
102
}
330
1F
100
AcDbEntity
  8
VISIBLE
100
AcDbLine
 10
0.0000000000000171
 20
1066.8
 30
0.0
 11
0.0000000000000484
 21
502.5999999999999
 31
0.0
  0
POLYLINE
  5
F4BB8
102
{ACAD_XDICTIONARY
360
1000036B
102
}
330
1F
100
AcDbEntity
  8
VISIBLE
100
AcDb3dPolyline
 66
     1
 10
0.0
 20
0.0
 30
0.0
 70
     8
  0
VERTEX
  5
10000368
330
F4BB8
100
AcDbEntity
  8
VISIBLE
100
AcDbVertex
100
AcDb3dPolylineVertex
 10
211.0172951426321
 20
1021.707714892246
 30
0.0
 70
    32
  0
VERTEX
  5
10000369
330
F4BB8
100
AcDbEntity
  8
VISIBLE
100
AcDbVertex
100
AcDb3dPolylineVertex
 10
210.2745501917161
 20
1021.632221864046
 30
0.0
 70
    32
  0
VERTEX
  5
1000036A
330
F4BB8
100
AcDbEntity
  8
VISIBLE
100
AcDbVertex
100
AcDb3dPolylineVertex
 10
209.8574126940609
 20
1021.466984572731
 30
0.0
 70
    32
  0
SEQEND
  5
1000036D
330
F4BB8
100
AcDbEntity
  8
VISIBLE
  0
ARC
  5
F4BB9
102
{ACAD_XDICTIONARY
360
1000036E
102
}
330
1F
100
AcDbEntity
  8
VISIBLE
100
AcDbCircle
 10
19.99999999999993
 20
10.0
 30
0.0
 40
10.0
100
AcDbArc
 50
180.0
 51
270.0000000000001
  0
LINE
  5
F4BBA
102
{ACAD_XDICTIONARY
360
10000373
102
}
330
1F
100
AcDbEntity
  8
VISIBLE
100
AcDbLine
 10
-553.4000000000001
 20
492.6
 30
0.0
 11
-1066.8
 21
492.5999999999999
 31
0.0
  0
LINE
  5
F4BBB
102
{ACAD_XDICTIONARY
360
10000375
102
}
330
1F
100
AcDbEntity
  8
VISIBLE
100
AcDbLine
 10
173.7113904760072
 20
1016.640914833887
 30
0.0
 11
173.7113904760072
 21
1015.675909310637
 31
0.0
  0
LINE
  5
F4BBC
102
{ACAD_XDICTIONARY
360
1000037A
102
}
330
1F
100
AcDbEntity
  8
VISIBLE
100
AcDbLine
 10
594.1999999999999
 20
472.6
 30
0.0
 11
594.1999999999999
 21
10.0
 31
0.0
  0
POLYLINE
  5
F4BBD
102
{ACAD_XDICTIONARY
360
1000037F
102
}
330
1F
100
AcDbEntity
  8
VISIBLE
100
AcDb3dPolyline
 66
     1
 10
0.0
 20
0.0
 30
0.0
 70
     8
  0
VERTEX
  5
1000037C
330
F4BBD
100
AcDbEntity
  8
VISIBLE
100
AcDbVertex
100
AcDb3dPolylineVertex
 10
209.1477272066601
 20
1022.108932091437
 30
0.0
 70
    32
  0
VERTEX
  5
1000037D
330
F4BBD
100
AcDbEntity
  8
VISIBLE
100
AcDbVertex
100
AcDb3dPolylineVertex
 10
210.1084541913826
 20
1022.51651040695
 30
0.0
 70
    32
  0
VERTEX
  5
1000037E
330
F4BBD
100
AcDbEntity
  8
VISIBLE
100
AcDbVertex
100
AcDb3dPolylineVertex
 10
211.0944122146845
 20
1022.614361550159
 30
0.0
 70
    32
  0
SEQEND
  5
10000381
330
F4BBD
100
AcDbEntity
  8
VISIBLE
  0
ARC
  5
F4BBE
102
{ACAD_XDICTIONARY
360
10000382
102
}
330
1F
100
AcDbEntity
  8
VISIBLE
100
AcDbCircle
 10
19.99999999999991
 20
502.5999999999999
 30
0.0
 40
10.00000000000004
100
AcDbArc
 50
180.0
 51
269.9999999999997
  0
LINE
  5
F4BBF
102
{ACAD_XDICTIONARY
360
10000384
102
}
330
1F
100
AcDbEntity
  8
VISIBLE
100
AcDbLine
 10
9.999999999999904
 20
472.6000000000001
 30
0.0
 11
9.999999999999934
 21
10.00000000000001
 31
0.0
  0
POLYLINE
  5
F4BC0
102
{ACAD_XDICTIONARY
360
10000389
102
}
330
1F
100
AcDbEntity
  8
VISIBLE
100
AcDb3dPolyline
 66
     1
 10
0.0
 20
0.0
 30
0.0
 70
     8
  0
VERTEX
  5
10000386
330
F4BC0
100
AcDbEntity
  8
VISIBLE
100
AcDbVertex
100
AcDb3dPolylineVertex
 10
208.4369995966641
 20
1020.730203897852
 30
0.0
 70
    32
  0
VERTEX
  5
10000387
330
F4BC0
100
AcDbEntity
  8
VISIBLE
100
AcDbVertex
100
AcDb3dPolylineVertex
 10
208.6598837751589
 20
1021.592934675901
 30
0.0
 70
    32
  0
VERTEX
  5
10000388
330
F4BC0
100
AcDbEntity
  8
VISIBLE
100
AcDbVertex
100
AcDb3dPolylineVertex
 10
209.1477272066601
 20
1022.108932091437
 30
0.0
 70
    32
  0
SEQEND
  5
1000038B
330
F4BC0
100
AcDbEntity
  8
VISIBLE
  0
ARC
  5
F4BC1
102
{ACAD_XDICTIONARY
360
1000038C
102
}
330
1F
100
AcDbEntity
  8
VISIBLE
100
AcDbCircle
 10
584.1999999999998
 20
965.2
 30
0.0
 40
9.999999999999897
100
AcDbArc
 50
0.0
 51
90.00000000000065
  0
LINE
  5
F4BC2
102
{ACAD_XDICTIONARY
360
10000391
102
}
330
1F
100
AcDbEntity
  8
VISIBLE
100
AcDbLine
 10
19.99999999999994
 20
0.0
 30
0.0
 11
584.1999999999999
 21
0.0
 31
0.0
  0
POLYLINE
  5
F4BC3
102
{ACAD_XDICTIONARY
360
10000396
102
}
330
1F
100
AcDbEntity
  8
VISIBLE
100
AcDb3dPolyline
 66
     1
 10
0.0
 20
0.0
 30
0.0
 70
     8
  0
VERTEX
  5
10000393
330
F4BC3
100
AcDbEntity
  8
VISIBLE
100
AcDbVertex
100
AcDb3dPolylineVertex
 10
208.6422977479386
 20
1019.891295208634
 30
0.0
 70
    32
  0
VERTEX
  5
10000394
330
F4BC3
100
AcDbEntity
  8
VISIBLE
100
AcDbVertex
100
AcDb3dPolylineVertex
 10
208.4767453187509
 20
1020.327446024616
 30
0.0
 70
    32
  0
VERTEX
  5
10000395
330
F4BC3
100
AcDbEntity
  8
VISIBLE
100
AcDbVertex
100
AcDb3dPolylineVertex
 10
208.4369995966641
 20
1020.730203897852
 30
0.0
 70
    32
  0
SEQEND
  5
10000398
330
F4BC3
100
AcDbEntity
  8
VISIBLE
  0
ARC
  5
F4BC4
102
{ACAD_XDICTIONARY
360
10000399
102
}
330
1F
100
AcDbEntity
  8
VISIBLE
100
AcDbCircle
 10
19.99999999999978
 20
965.1999999999999
 30
0.0
 40
10.00000000000001
100
AcDbArc
 50
89.9999999999999
 51
180.0
  0
LINE
  5
F4BC5
102
{ACAD_XDICTIONARY
360
1000039E
102
}
330
1F
100
AcDbEntity
  8
VISIBLE
100
AcDbLine
 10
19.99999999999991
 20
482.6000000000001
 30
0.0
 11
584.1999999999998
 21
482.6000000000001
 31
0.0
  0
POLYLINE
  5
F4BC6
102
{ACAD_XDICTIONARY
360
100003A3
102
}
330
1F
100
AcDbEntity
  8
VISIBLE
100
AcDb3dPolyline
 66
     1
 10
0.0
 20
0.0
 30
0.0
 70
     8
  0
VERTEX
  5
100003A0
330
F4BC6
100
AcDbEntity
  8
VISIBLE
100
AcDbVertex
100
AcDb3dPolylineVertex
 10
209.2675713051199
 20
1019.262895283667
 30
0.0
 70
    32
  0
VERTEX
  5
100003A1
330
F4BC6
100
AcDbEntity
  8
VISIBLE
100
AcDbVertex
100
AcDb3dPolylineVertex
 10
208.864521637557
 20
1019.596567932117
 30
0.0
 70
    32
  0
VERTEX
  5
100003A2
330
F4BC6
100
AcDbEntity
  8
VISIBLE
100
AcDbVertex
100
AcDb3dPolylineVertex
 10
208.6422977479386
 20
1019.891295208634
 30
0.0
 70
    32
  0
SEQEND
  5
100003A5
330
F4BC6
100
AcDbEntity
  8
VISIBLE
  0
ARC
  5
F4BC7
102
{ACAD_XDICTIONARY
360
100003A6
102
}
330
1F
100
AcDbEntity
  8
VISIBLE
100
AcDbCircle
 10
-553.4000000000001
 20
472.6
 30
0.0
 40
10.00000000000001
100
AcDbArc
 50
0.0
 51
90.0
  0
LINE
  5
F4BC8
102
{ACAD_XDICTIONARY
360
100003A8
102
}
330
1F
100
AcDbEntity
  8
VISIBLE
100
AcDbLine
 10
161.2726151784812
 20
1015.344514325331
 30
0.0
 11
160.1908919245577
 21
1015.344514325331
 31
0.0
  0
LINE
  5
F4BC9
102
{ACAD_XDICTIONARY
360
100003AA
102
}
330
1F
100
AcDbEntity
  8
VISIBLE
100
AcDbLine
 10
-0.0000000000000066
 20
472.6
 30
0.0
 11
0.0000000000000217
 21
9.999999999999995
 31
0.0
  0
POLYLINE
  5
F4BCA
102
{ACAD_XDICTIONARY
360
100003B2
102
}
330
1F
100
AcDbEntity
  8
VISIBLE
100
AcDb3dPolyline
 66
     1
 10
0.0
 20
0.0
 30
0.0
 70
     8
  0
VERTEX
  5
100003AF
330
F4BCA
100
AcDbEntity
  8
VISIBLE
100
AcDbVertex
100
AcDb3dPolylineVertex
 10
210.6838159121355
 20
1018.614695029389
 30
0.0
 70
    32
  0
VERTEX
  5
100003B0
330
F4BCA
100
AcDbEntity
  8
VISIBLE
100
AcDbVertex
100
AcDb3dPolylineVertex
 10
209.7487201410689
 20
1019.000797282458
 30
0.0
 70
    32
  0
VERTEX
  5
100003B1
330
F4BCA
100
AcDbEntity
  8
VISIBLE
100
AcDbVertex
100
AcDb3dPolylineVertex
 10
209.2675713051199
 20
1019.262895283667
 30
0.0
 70
    32
  0
SEQEND
  5
100003B4
330
F4BCA
100
AcDbEntity
  8
VISIBLE
  0
ARC
  5
F4BCB
102
{ACAD_XDICTIONARY
360
100003B5
102
}
330
1F
100
AcDbEntity
  8
VISIBLE
100
AcDbCircle
 10
-1066.8
 20
472.6
 30
0.0
 40
9.999999999999954
100
AcDbArc
 50
89.99999999999868
 51
180.0000000000003
  0
LINE
  5
F4BCC
102
{ACAD_XDICTIONARY
360
100003BA
102
}
330
1F
100
AcDbEntity
  8
VISIBLE
100
AcDbLine
 10
161.2726151784812
 20
1019.089902932847
 30
0.0
 11
161.2726151784812
 21
1015.344514325331
 31
0.0
  0
LINE
  5
F4BCD
102
{ACAD_XDICTIONARY
360
100003BC
102
}
330
1F
100
AcDbEntity
  8
VISIBLE
100
AcDbLine
 10
-533.4000000000001
 20
472.6
 30
0.0
 11
-533.4000000000001
 21
9.999999999999995
 31
0.0
  0
POLYLINE
  5
F4BCE
102
{ACAD_XDICTIONARY
360
100003C4
102
}
330
1F
100
AcDbEntity
  8
VISIBLE
100
AcDb3dPolyline
 66
     1
 10
0.0
 20
0.0
 30
0.0
 70
     8
  0
VERTEX
  5
100003C1
330
F4BCE
100
AcDbEntity
  8
VISIBLE
100
AcDbVertex
100
AcDb3dPolylineVertex
 10
212.0948499061745
 20
1017.914388645346
 30
0.0
 70
    32
  0
VERTEX
  5
100003C2
330
F4BCE
100
AcDbEntity
  8
VISIBLE
100
AcDbVertex
100
AcDb3dPolylineVertex
 10
211.474658572466
 20
1018.279855203632
 30
0.0
 70
    32
  0
VERTEX
  5
100003C3
330
F4BCE
100
AcDbEntity
  8
VISIBLE
100
AcDbVertex
100
AcDb3dPolylineVertex
 10
210.6838159121355
 20
1018.614695029389
 30
0.0
 70
    32
  0
SEQEND
  5
100003C6
330
F4BCE
100
AcDbEntity
  8
VISIBLE
  0
ARC
  5
F4BCF
102
{ACAD_XDICTIONARY
360
100003C7
102
}
330
1F
100
AcDbEntity
  8
VISIBLE
100
AcDbCircle
 10
-9.999999999999972
 20
472.6000000000001
 30
0.0
 40
9.999999999999972
100
AcDbArc
 50
0.0
 51
90.0000000000002
  0
LINE
  5
F4BD0
102
{ACAD_XDICTIONARY
360
100003C9
102
}
330
1F
100
AcDbEntity
  8
VISIBLE
100
AcDbLine
 10
-553.4000000000002
 20
1076.8
 30
0.0
 11
-1066.8
 21
1076.8
 31
0.0
  0
POLYLINE
  5
F4BD1
102
{ACAD_XDICTIONARY
360
100003CE
102
}
330
1F
100
AcDbEntity
  8
VISIBLE
100
AcDb3dPolyline
 66
     1
 10
0.0
 20
0.0
 30
0.0
 70
     8
  0
VERTEX
  5
100003CB
330
F4BD1
100
AcDbEntity
  8
VISIBLE
100
AcDbVertex
100
AcDb3dPolylineVertex
 10
171.4333104826768
 20
1016.159454194857
 30
0.0
 70
    32
  0
VERTEX
  5
100003CC
330
F4BD1
100
AcDbEntity
  8
VISIBLE
100
AcDbVertex
100
AcDb3dPolylineVertex
 10
172.7157115331364
 20
1016.310440251257
 30
0.0
 70
    32
  0
VERTEX
  5
100003CD
330
F4BD1
100
AcDbEntity
  8
VISIBLE
100
AcDbVertex
100
AcDb3dPolylineVertex
 10
173.7113904760072
 20
1016.640914833887
 30
0.0
 70
    32
  0
SEQEND
  5
100003D0
330
F4BD1
100
AcDbEntity
  8
VISIBLE
  0
POLYLINE
  5
F4BD2
102
{ACAD_XDICTIONARY
360
100003D4
102
}
330
1F
100
AcDbEntity
  8
VISIBLE
100
AcDb3dPolyline
 66
     1
 10
0.0
 20
0.0
 30
0.0
 70
     8
  0
VERTEX
  5
100003D1
330
F4BD2
100
AcDbEntity
  8
VISIBLE
100
AcDbVertex
100
AcDb3dPolylineVertex
 10
169.736734897525
 20
1016.810780816921
 30
0.0
 70
    32
  0
VERTEX
  5
100003D2
330
F4BD2
100
AcDbEntity
  8
VISIBLE
100
AcDbVertex
100
AcDb3dPolylineVertex
 10
170.5656175336783
 20
1016.285551028889
 30
0.0
 70
    32
  0
VERTEX
  5
100003D3
330
F4BD2
100
AcDbEntity
  8
VISIBLE
100
AcDbVertex
100
AcDb3dPolylineVertex
 10
171.4333104826768
 20
1016.159454194857
 30
0.0
 70
    32
  0
SEQEND
  5
100003D6
330
F4BD2
100
AcDbEntity
  8
VISIBLE
  0
LINE
  5
F4BD3
102
{ACAD_XDICTIONARY
360
100003D7
102
}
330
1F
100
AcDbEntity
  8
VISIBLE
100
AcDbLine
 10
185.6254615545273
 20
1031.995219802856
 30
0.0
 11
211.0254615545273
 21
1031.995219802856
 31
0.0
  0
LINE
  5
F4BD4
102
{ACAD_XDICTIONARY
360
100003D9
102
}
330
1F
100
AcDbEntity
  8
VISIBLE
100
AcDbLine
 10
185.6254615545273
 20
1057.395219802856
 30
0.0
 11
211.0254615545273
 21
1057.395219802856
 31
0.0
  0
ARC
  5
F4BD5
102
{ACAD_XDICTIONARY
360
100003DB
102
}
330
1F
100
AcDbEntity
  8
VISIBLE
100
AcDbCircle
 10
-870.1
 20
89.99999999999983
 30
0.0
 40
30.00000000000011
100
AcDbArc
 50
90.0000000000002
 51
179.9999999999998
  0
ARC
  5
F4BD6
102
{ACAD_XDICTIONARY
360
100003E0
102
}
330
1F
100
AcDbEntity
  8
VISIBLE
100
AcDbCircle
 10
-870.1
 20
60.00000000000006
 30
0.0
 40
30.00000000000014
100
AcDbArc
 50
180.0000000000003
 51
269.9999999999998
  0
ARC
  5
F4BD7
102
{ACAD_XDICTIONARY
360
100003E5
102
}
330
1F
100
AcDbEntity
  8
VISIBLE
100
AcDbCircle
 10
-750.1000000000004
 20
60.00000000000011
 30
0.0
 40
30.00000000000015
100
AcDbArc
 50
270.0000000000002
 51
0.0
  0
ARC
  5
F4BD8
102
{ACAD_XDICTIONARY
360
100003E7
102
}
330
1F
100
AcDbEntity
  8
VISIBLE
100
AcDbCircle
 10
-750.1000000000003
 20
90.00000000000006
 30
0.0
 40
30.0
100
AcDbArc
 50
0.0
 51
90.0
  0
ARC
  5
F4BD9
102
{ACAD_XDICTIONARY
360
100003EC
102
}
330
1F
100
AcDbEntity
  8
VISIBLE
100
AcDbCircle
 10
-10.0
 20
10.0
 30
0.0
 40
10.0
100
AcDbArc
 50
269.9999999999999
 51
0.0
  0
ARC
  5
F4BDA
102
{ACAD_XDICTIONARY
360
100003F1
102
}
330
1F
100
AcDbEntity
  8
VISIBLE
100
AcDbCircle
 10
-523.4000000000001
 20
9.99999999999998
 30
0.0
 40
10.00000000000001
100
AcDbArc
 50
179.9999999999999
 51
270.0
  0
ARC
  5
F4BDB
102
{ACAD_XDICTIONARY
360
100003F6
102
}
330
1F
100
AcDbEntity
  8
VISIBLE
100
AcDbCircle
 10
-553.4
 20
9.999999999999964
 30
0.0
 40
9.99999999999997
100
AcDbArc
 50
270.0
 51
0.0
  0
ARC
  5
F4BDC
102
{ACAD_XDICTIONARY
360
100003FB
102
}
330
1F
100
AcDbEntity
  8
VISIBLE
100
AcDbCircle
 10
-1066.8
 20
9.999999999999885
 30
0.0
 40
9.999999999999787
100
AcDbArc
 50
179.9999999999994
 51
270.0000000000013
  0
ARC
  5
F4BDD
102
{ACAD_XDICTIONARY
360
10000400
102
}
330
1F
100
AcDbEntity
  8
VISIBLE
100
AcDbCircle
 10
19.99999999999995
 20
472.6
 30
0.0
 40
10.00000000000006
100
AcDbArc
 50
90.00000000000026
 51
179.9999999999997
  0
LINE
  5
F4BDE
102
{ACAD_XDICTIONARY
360
10000405
102
}
330
1F
100
AcDbEntity
  8
VISIBLE
100
AcDbLine
 10
160.1908919245577
 20
1015.344514325331
 30
0.0
 11
160.1908919245577
 21
1022.483054103151
 31
0.0
  0
LINE
  5
F4BDF
102
{ACAD_XDICTIONARY
360
1000040A
102
}
330
1F
100
AcDbEntity
  8
VISIBLE
100
AcDbLine
 10
160.1908919245577
 20
1022.48305410315
 30
0.0
 11
161.0704433949927
 21
1022.48305410315
 31
0.0
  0
LINE
  5
F4BE0
102
{ACAD_XDICTIONARY
360
1000040F
102
}
330
1F
100
AcDbEntity
  8
VISIBLE
100
AcDbLine
 10
161.0704433949926
 20
1022.48305410315
 30
0.0
 11
161.2455199910034
 21
1021.505543108757
 31
0.0
  0
LINE
  5
F4BE1
102
{ACAD_XDICTIONARY
360
10000414
102
}
330
1F
100
AcDbEntity
  8
VISIBLE
100
AcDbLine
 10
161.2455199910034
 20
1021.505543108757
 30
0.0
 11
161.2976261207685
 21
1021.505543108757
 31
0.0
  0
POLYLINE
  5
F4BE2
102
{ACAD_XDICTIONARY
360
1000041C
102
}
330
1F
100
AcDbEntity
  8
VISIBLE
100
AcDb3dPolyline
 66
     1
 10
0.0
 20
0.0
 30
0.0
 70
     8
  0
VERTEX
  5
10000419
330
F4BE2
100
AcDbEntity
  8
VISIBLE
100
AcDbVertex
100
AcDb3dPolylineVertex
 10
161.2976261207685
 20
1021.505543108757
 30
0.0
 70
    32
  0
VERTEX
  5
1000041A
330
F4BE2
100
AcDbEntity
  8
VISIBLE
100
AcDbVertex
100
AcDb3dPolylineVertex
 10
161.7544593186259
 20
1022.02194903635
 30
0.0
 70
    32
  0
VERTEX
  5
1000041B
330
F4BE2
100
AcDbEntity
  8
VISIBLE
100
AcDbVertex
100
AcDb3dPolylineVertex
 10
162.2303258435639
 20
1022.323609346069
 30
0.0
 70
    32
  0
SEQEND
  5
1000041E
330
F4BE2
100
AcDbEntity
  8
VISIBLE
  0
POLYLINE
  5
F4BE3
102
{ACAD_XDICTIONARY
360
10000422
102
}
330
1F
100
AcDbEntity
  8
VISIBLE
100
AcDb3dPolyline
 66
     1
 10
0.0
 20
0.0
 30
0.0
 70
     8
  0
VERTEX
  5
1000041F
330
F4BE3
100
AcDbEntity
  8
VISIBLE
100
AcDbVertex
100
AcDb3dPolylineVertex
 10
162.2303258435639
 20
1022.323609346069
 30
0.0
 70
    32
  0
VERTEX
  5
10000420
330
F4BE3
100
AcDbEntity
  8
VISIBLE
100
AcDbVertex
100
AcDb3dPolylineVertex
 10
162.9442648585496
 20
1022.558071923447
 30
0.0
 70
    32
  0
VERTEX
  5
10000421
330
F4BE3
100
AcDbEntity
  8
VISIBLE
100
AcDbVertex
100
AcDb3dPolylineVertex
 10
163.5652848881459
 20
1022.614361550159
 30
0.0
 70
    32
  0
SEQEND
  5
10000424
330
F4BE3
100
AcDbEntity
  8
VISIBLE
  0
POLYLINE
  5
F4BE4
102
{ACAD_XDICTIONARY
360
10000428
102
}
330
1F
100
AcDbEntity
  8
VISIBLE
100
AcDb3dPolyline
 66
     1
 10
0.0
 20
0.0
 30
0.0
 70
     8
  0
VERTEX
  5
10000425
330
F4BE4
100
AcDbEntity
  8
VISIBLE
100
AcDbVertex
100
AcDb3dPolylineVertex
 10
163.5652848881459
 20
1022.614361550159
 30
0.0
 70
    32
  0
VERTEX
  5
10000426
330
F4BE4
100
AcDbEntity
  8
VISIBLE
100
AcDbVertex
100
AcDb3dPolylineVertex
 10
164.8099160809594
 20
1022.419256191564
 30
0.0
 70
    32
  0
VERTEX
  5
10000427
330
F4BE4
100
AcDbEntity
  8
VISIBLE
100
AcDbVertex
100
AcDb3dPolylineVertex
 10
165.5067592831937
 20
1021.992214360763
 30
0.0
 70
    32
  0
SEQEND
  5
1000042A
330
F4BE4
100
AcDbEntity
  8
VISIBLE
  0
POLYLINE
  5
F4BE5
102
{ACAD_XDICTIONARY
360
1000042E
102
}
330
1F
100
AcDbEntity
  8
VISIBLE
100
AcDb3dPolyline
 66
     1
 10
0.0
 20
0.0
 30
0.0
 70
     8
  0
VERTEX
  5
1000042B
330
F4BE5
100
AcDbEntity
  8
VISIBLE
100
AcDbVertex
100
AcDb3dPolylineVertex
 10
165.5067592831937
 20
1021.992214360763
 30
0.0
 70
    32
  0
VERTEX
  5
1000042C
330
F4BE5
100
AcDbEntity
  8
VISIBLE
100
AcDbVertex
100
AcDb3dPolylineVertex
 10
166.031989071226
 20
1021.061086992539
 30
0.0
 70
    32
  0
VERTEX
  5
1000042D
330
F4BE5
100
AcDbEntity
  8
VISIBLE
100
AcDbVertex
100
AcDb3dPolylineVertex
 10
166.1580859052575
 20
1020.000718081141
 30
0.0
 70
    32
  0
SEQEND
  5
10000430
330
F4BE5
100
AcDbEntity
  8
VISIBLE
  0
LINE
  5
F4BE6
102
{ACAD_XDICTIONARY
360
10000431
102
}
330
1F
100
AcDbEntity
  8
VISIBLE
100
AcDbLine
 10
166.1580859052575
 20
1020.000718081141
 30
0.0
 11
166.1580859052575
 21
1015.344514325331
 31
0.0
  0
LINE
  5
F4BE7
102
{ACAD_XDICTIONARY
360
10000433
102
}
330
1F
100
AcDbEntity
  8
VISIBLE
100
AcDbLine
 10
166.1580859052575
 20
1015.344514325331
 30
0.0
 11
165.0763626513339
 21
1015.344514325331
 31
0.0
  0
POLYLINE
  5
F4BE8
102
{ACAD_XDICTIONARY
360
10000438
102
}
330
1F
100
AcDbEntity
  8
VISIBLE
100
AcDb3dPolyline
 66
     1
 10
0.0
 20
0.0
 30
0.0
 70
     8
  0
VERTEX
  5
10000435
330
F4BE8
100
AcDbEntity
  8
VISIBLE
100
AcDbVertex
100
AcDb3dPolylineVertex
 10
171.3937098240553
 20
1015.213206878323
 30
0.0
 70
    32
  0
VERTEX
  5
10000436
330
F4BE8
100
AcDbEntity
  8
VISIBLE
100
AcDbVertex
100
AcDb3dPolylineVertex
 10
169.8307660361481
 20
1015.515832610414
 30
0.0
 70
    32
  0
VERTEX
  5
10000437
330
F4BE8
100
AcDbEntity
  8
VISIBLE
100
AcDbVertex
100
AcDb3dPolylineVertex
 10
168.8957419631162
 20
1016.178212401573
 30
0.0
 70
    32
  0
SEQEND
  5
1000043A
330
F4BE8
100
AcDbEntity
  8
VISIBLE
  0
POLYLINE
  5
F4BE9
102
{ACAD_XDICTIONARY
360
1000043E
102
}
330
1F
100
AcDbEntity
  8
VISIBLE
100
AcDb3dPolyline
 66
     1
 10
0.0
 20
0.0
 30
0.0
 70
     8
  0
VERTEX
  5
1000043B
330
F4BE9
100
AcDbEntity
  8
VISIBLE
100
AcDbVertex
100
AcDb3dPolylineVertex
 10
168.8957419631162
 20
1016.178212401573
 30
0.0
 70
    32
  0
VERTEX
  5
1000043C
330
F4BE9
100
AcDbEntity
  8
VISIBLE
100
AcDbVertex
100
AcDb3dPolylineVertex
 10
168.1570587892276
 20
1017.493014294067
 30
0.0
 70
    32
  0
VERTEX
  5
1000043D
330
F4BE9
100
AcDbEntity
  8
VISIBLE
100
AcDbVertex
100
AcDb3dPolylineVertex
 10
167.9797162018456
 20
1018.854383226309
 30
0.0
 70
    32
  0
SEQEND
  5
10000440
330
F4BE9
100
AcDbEntity
  8
VISIBLE
  0
POLYLINE
  5
F4BEA
102
{ACAD_XDICTIONARY
360
10000444
102
}
330
1F
100
AcDbEntity
  8
VISIBLE
100
AcDb3dPolyline
 66
     1
 10
0.0
 20
0.0
 30
0.0
 70
     8
  0
VERTEX
  5
10000441
330
F4BEA
100
AcDbEntity
  8
VISIBLE
100
AcDbVertex
100
AcDb3dPolylineVertex
 10
167.9797162018456
 20
1018.854383226309
 30
0.0
 70
    32
  0
VERTEX
  5
10000442
330
F4BEA
100
AcDbEntity
  8
VISIBLE
100
AcDbVertex
100
AcDb3dPolylineVertex
 10
168.2463928728892
 20
1020.56635221274
 30
0.0
 70
    32
  0
VERTEX
  5
10000443
330
F4BEA
100
AcDbEntity
  8
VISIBLE
100
AcDbVertex
100
AcDb3dPolylineVertex
 10
168.8300882396122
 20
1021.598292019739
 30
0.0
 70
    32
  0
SEQEND
  5
10000446
330
F4BEA
100
AcDbEntity
  8
VISIBLE
  0
POLYLINE
  5
F4BEB
102
{ACAD_XDICTIONARY
360
1000044A
102
}
330
1F
100
AcDbEntity
  8
VISIBLE
100
AcDb3dPolyline
 66
     1
 10
0.0
 20
0.0
 30
0.0
 70
     8
  0
VERTEX
  5
10000447
330
F4BEB
100
AcDbEntity
  8
VISIBLE
100
AcDbVertex
100
AcDb3dPolylineVertex
 10
168.8300882396122
 20
1021.598292019739
 30
0.0
 70
    32
  0
VERTEX
  5
10000448
330
F4BEB
100
AcDbEntity
  8
VISIBLE
100
AcDbVertex
100
AcDb3dPolylineVertex
 10
169.9655183236072
 20
1022.417650489069
 30
0.0
 70
    32
  0
VERTEX
  5
10000449
330
F4BEB
100
AcDbEntity
  8
VISIBLE
100
AcDbVertex
100
AcDb3dPolylineVertex
 10
171.1144209685144
 20
1022.614361550159
 30
0.0
 70
    32
  0
SEQEND
  5
1000044C
330
F4BEB
100
AcDbEntity
  8
VISIBLE
  0
POLYLINE
  5
F4BEC
102
{ACAD_XDICTIONARY
360
10000450
102
}
330
1F
100
AcDbEntity
  8
VISIBLE
100
AcDb3dPolyline
 66
     1
 10
0.0
 20
0.0
 30
0.0
 70
     8
  0
VERTEX
  5
1000044D
330
F4BEC
100
AcDbEntity
  8
VISIBLE
100
AcDbVertex
100
AcDb3dPolylineVertex
 10
171.1144209685144
 20
1022.614361550159
 30
0.0
 70
    32
  0
VERTEX
  5
1000044E
330
F4BEC
100
AcDbEntity
  8
VISIBLE
100
AcDbVertex
100
AcDb3dPolylineVertex
 10
172.4402410147846
 20
1022.337553780093
 30
0.0
 70
    32
  0
VERTEX
  5
1000044F
330
F4BEC
100
AcDbEntity
  8
VISIBLE
100
AcDbVertex
100
AcDb3dPolylineVertex
 10
173.2361825725495
 20
1021.731683711938
 30
0.0
 70
    32
  0
SEQEND
  5
10000452
330
F4BEC
100
AcDbEntity
  8
VISIBLE
  0
POLYLINE
  5
F4BED
102
{ACAD_XDICTIONARY
360
10000456
102
}
330
1F
100
AcDbEntity
  8
VISIBLE
100
AcDb3dPolyline
 66
     1
 10
0.0
 20
0.0
 30
0.0
 70
     8
  0
VERTEX
  5
10000453
330
F4BED
100
AcDbEntity
  8
VISIBLE
100
AcDbVertex
100
AcDb3dPolylineVertex
 10
173.2361825725495
 20
1021.731683711938
 30
0.0
 70
    32
  0
VERTEX
  5
10000454
330
F4BED
100
AcDbEntity
  8
VISIBLE
100
AcDbVertex
100
AcDb3dPolylineVertex
 10
173.8664583181881
 20
1020.566280514706
 30
0.0
 70
    32
  0
VERTEX
  5
10000455
330
F4BED
100
AcDbEntity
  8
VISIBLE
100
AcDbVertex
100
AcDb3dPolylineVertex
 10
174.017774519026
 20
1019.402539711437
 30
0.0
 70
    32
  0
SEQEND
  5
10000458
330
F4BED
100
AcDbEntity
  8
VISIBLE
  0
LINE
  5
F4BEE
102
{ACAD_XDICTIONARY
360
10000459
102
}
330
1F
100
AcDbEntity
  8
VISIBLE
100
AcDbLine
 10
174.017774519026
 20
1019.402539711437
 30
0.0
 11
174.017774519026
 21
1018.718907288919
 31
0.0
  0
LINE
  5
F4BEF
102
{ACAD_XDICTIONARY
360
1000045B
102
}
330
1F
100
AcDbEntity
  8
VISIBLE
100
AcDbLine
 10
174.0177745190261
 20
1018.718907288919
 30
0.0
 11
169.1010401143907
 21
1018.718907288919
 31
0.0
  0
POLYLINE
  5
F4BF0
102
{ACAD_XDICTIONARY
360
10000460
102
}
330
1F
100
AcDbEntity
  8
VISIBLE
100
AcDb3dPolyline
 66
     1
 10
0.0
 20
0.0
 30
0.0
 70
     8
  0
VERTEX
  5
1000045D
330
F4BF0
100
AcDbEntity
  8
VISIBLE
100
AcDbVertex
100
AcDb3dPolylineVertex
 10
169.1010401143907
 20
1018.718907288919
 30
0.0
 70
    32
  0
VERTEX
  5
1000045E
330
F4BF0
100
AcDbEntity
  8
VISIBLE
100
AcDbVertex
100
AcDb3dPolylineVertex
 10
169.3168278548605
 20
1017.501167861253
 30
0.0
 70
    32
  0
VERTEX
  5
1000045F
330
F4BF0
100
AcDbEntity
  8
VISIBLE
100
AcDbVertex
100
AcDb3dPolylineVertex
 10
169.736734897525
 20
1016.810780816921
 30
0.0
 70
    32
  0
SEQEND
  5
10000462
330
F4BF0
100
AcDbEntity
  8
VISIBLE
  0
LINE
  5
F4BF1
102
{ACAD_XDICTIONARY
360
10000463
102
}
330
1F
100
AcDbEntity
  8
VISIBLE
100
AcDbLine
 10
179.3284312646856
 20
1022.48305410315
 30
0.0
 11
180.4101545186092
 21
1022.48305410315
 31
0.0
  0
LINE
  5
F4BF2
102
{ACAD_XDICTIONARY
360
10000465
102
}
330
1F
100
AcDbEntity
  8
VISIBLE
100
AcDbLine
 10
180.4101545186092
 20
1022.483054103151
 30
0.0
 11
180.4101545186092
 21
1015.344514325331
 31
0.0
  0
POLYLINE
  5
F4BF3
102
{ACAD_XDICTIONARY
360
1000046A
102
}
330
1F
100
AcDbEntity
  8
VISIBLE
100
AcDb3dPolyline
 66
     1
 10
0.0
 20
0.0
 30
0.0
 70
     8
  0
VERTEX
  5
10000467
330
F4BF3
100
AcDbEntity
  8
VISIBLE
100
AcDbVertex
100
AcDb3dPolylineVertex
 10
179.236724476299
 20
1024.417233640031
 30
0.0
 70
    32
  0
VERTEX
  5
10000468
330
F4BF3
100
AcDbEntity
  8
VISIBLE
100
AcDbVertex
100
AcDb3dPolylineVertex
 10
179.2939161643292
 20
1024.770654928512
 30
0.0
 70
    32
  0
VERTEX
  5
10000469
330
F4BF3
100
AcDbEntity
  8
VISIBLE
100
AcDbVertex
100
AcDb3dPolylineVertex
 10
179.4190959304769
 20
1024.961221634779
 30
0.0
 70
    32
  0
SEQEND
  5
1000046C
330
F4BF3
100
AcDbEntity
  8
VISIBLE
  0
POLYLINE
  5
F4BF4
102
{ACAD_XDICTIONARY
360
10000470
102
}
330
1F
100
AcDbEntity
  8
VISIBLE
100
AcDb3dPolyline
 66
     1
 10
0.0
 20
0.0
 30
0.0
 70
     8
  0
VERTEX
  5
1000046D
330
F4BF4
100
AcDbEntity
  8
VISIBLE
100
AcDbVertex
100
AcDb3dPolylineVertex
 10
179.4190959304769
 20
1024.961221634779
 30
0.0
 70
    32
  0
VERTEX
  5
1000046E
330
F4BF4
100
AcDbEntity
  8
VISIBLE
100
AcDbVertex
100
AcDb3dPolylineVertex
 10
179.65243801764
 20
1025.10072266648
 30
0.0
 70
    32
  0
VERTEX
  5
1000046F
330
F4BF4
100
AcDbEntity
  8
VISIBLE
100
AcDbVertex
100
AcDb3dPolylineVertex
 10
179.8765877498145
 20
1025.134213985599
 30
0.0
 70
    32
  0
SEQEND
  5
10000472
330
F4BF4
100
AcDbEntity
  8
VISIBLE
  0
POLYLINE
  5
F4BF5
102
{ACAD_XDICTIONARY
360
10000476
102
}
330
1F
100
AcDbEntity
  8
VISIBLE
100
AcDb3dPolyline
 66
     1
 10
0.0
 20
0.0
 30
0.0
 70
     8
  0
VERTEX
  5
10000473
330
F4BF5
100
AcDbEntity
  8
VISIBLE
100
AcDbVertex
100
AcDb3dPolylineVertex
 10
179.8765877498145
 20
1025.134213985599
 30
0.0
 70
    32
  0
VERTEX
  5
10000474
330
F4BF5
100
AcDbEntity
  8
VISIBLE
100
AcDbVertex
100
AcDb3dPolylineVertex
 10
180.1458322109329
 20
1025.078983155444
 30
0.0
 70
    32
  0
VERTEX
  5
10000475
330
F4BF5
100
AcDbEntity
  8
VISIBLE
100
AcDbVertex
100
AcDb3dPolylineVertex
 10
180.3257425883897
 20
1024.958095266993
 30
0.0
 70
    32
  0
SEQEND
  5
10000478
330
F4BF5
100
AcDbEntity
  8
VISIBLE
  0
POLYLINE
  5
F4BF6
102
{ACAD_XDICTIONARY
360
1000047C
102
}
330
1F
100
AcDbEntity
  8
VISIBLE
100
AcDb3dPolyline
 66
     1
 10
0.0
 20
0.0
 30
0.0
 70
     8
  0
VERTEX
  5
10000479
330
F4BF6
100
AcDbEntity
  8
VISIBLE
100
AcDbVertex
100
AcDb3dPolylineVertex
 10
180.3257425883897
 20
1024.958095266993
 30
0.0
 70
    32
  0
VERTEX
  5
1000047A
330
F4BF6
100
AcDbEntity
  8
VISIBLE
100
AcDbVertex
100
AcDb3dPolylineVertex
 10
180.4778491350039
 20
1024.701689756249
 30
0.0
 70
    32
  0
VERTEX
  5
1000047B
330
F4BF6
100
AcDbEntity
  8
VISIBLE
100
AcDbVertex
100
AcDb3dPolylineVertex
 10
180.5143667781394
 20
1024.417233640031
 30
0.0
 70
    32
  0
SEQEND
  5
1000047E
330
F4BF6
100
AcDbEntity
  8
VISIBLE
  0
POLYLINE
  5
F4BF7
102
{ACAD_XDICTIONARY
360
10000482
102
}
330
1F
100
AcDbEntity
  8
VISIBLE
100
AcDb3dPolyline
 66
     1
 10
0.0
 20
0.0
 30
0.0
 70
     8
  0
VERTEX
  5
1000047F
330
F4BF7
100
AcDbEntity
  8
VISIBLE
100
AcDbVertex
100
AcDb3dPolylineVertex
 10
180.5143667781394
 20
1024.417233640031
 30
0.0
 70
    32
  0
VERTEX
  5
10000480
330
F4BF7
100
AcDbEntity
  8
VISIBLE
100
AcDbVertex
100
AcDb3dPolylineVertex
 10
180.4552142322339
 20
1024.066893699641
 30
0.0
 70
    32
  0
VERTEX
  5
10000481
330
F4BF7
100
AcDbEntity
  8
VISIBLE
100
AcDbVertex
100
AcDb3dPolylineVertex
 10
180.3257425883897
 20
1023.873245645284
 30
0.0
 70
    32
  0
SEQEND
  5
10000484
330
F4BF7
100
AcDbEntity
  8
VISIBLE
  0
POLYLINE
  5
F4BF8
102
{ACAD_XDICTIONARY
360
10000488
102
}
330
1F
100
AcDbEntity
  8
VISIBLE
100
AcDb3dPolyline
 66
     1
 10
0.0
 20
0.0
 30
0.0
 70
     8
  0
VERTEX
  5
10000485
330
F4BF8
100
AcDbEntity
  8
VISIBLE
100
AcDbVertex
100
AcDb3dPolylineVertex
 10
180.3257425883897
 20
1023.873245645284
 30
0.0
 70
    32
  0
VERTEX
  5
10000486
330
F4BF8
100
AcDbEntity
  8
VISIBLE
100
AcDbVertex
100
AcDb3dPolylineVertex
 10
180.0919336303039
 20
1023.728702407617
 30
0.0
 70
    32
  0
VERTEX
  5
10000487
330
F4BF8
100
AcDbEntity
  8
VISIBLE
100
AcDbVertex
100
AcDb3dPolylineVertex
 10
179.8765877498145
 20
1023.694000558892
 30
0.0
 70
    32
  0
SEQEND
  5
1000048A
330
F4BF8
100
AcDbEntity
  8
VISIBLE
  0
POLYLINE
  5
F4BF9
102
{ACAD_XDICTIONARY
360
1000048E
102
}
330
1F
100
AcDbEntity
  8
VISIBLE
100
AcDb3dPolyline
 66
     1
 10
0.0
 20
0.0
 30
0.0
 70
     8
  0
VERTEX
  5
1000048B
330
F4BF9
100
AcDbEntity
  8
VISIBLE
100
AcDbVertex
100
AcDb3dPolylineVertex
 10
179.8765877498145
 20
1023.694000558892
 30
0.0
 70
    32
  0
VERTEX
  5
1000048C
330
F4BF9
100
AcDbEntity
  8
VISIBLE
100
AcDbVertex
100
AcDb3dPolylineVertex
 10
179.5975389993195
 20
1023.750211817984
 30
0.0
 70
    32
  0
VERTEX
  5
1000048D
330
F4BF9
100
AcDbEntity
  8
VISIBLE
100
AcDbVertex
100
AcDb3dPolylineVertex
 10
179.4190959304769
 20
1023.873245645284
 30
0.0
 70
    32
  0
SEQEND
  5
10000490
330
F4BF9
100
AcDbEntity
  8
VISIBLE
  0
POLYLINE
  5
F4BFA
102
{ACAD_XDICTIONARY
360
10000494
102
}
330
1F
100
AcDbEntity
  8
VISIBLE
100
AcDb3dPolyline
 66
     1
 10
0.0
 20
0.0
 30
0.0
 70
     8
  0
VERTEX
  5
10000491
330
F4BFA
100
AcDbEntity
  8
VISIBLE
100
AcDbVertex
100
AcDb3dPolylineVertex
 10
179.4190959304769
 20
1023.873245645284
 30
0.0
 70
    32
  0
VERTEX
  5
10000492
330
F4BFA
100
AcDbEntity
  8
VISIBLE
100
AcDbVertex
100
AcDb3dPolylineVertex
 10
179.2720315898279
 20
1024.132172259011
 30
0.0
 70
    32
  0
VERTEX
  5
10000493
330
F4BFA
100
AcDbEntity
  8
VISIBLE
100
AcDbVertex
100
AcDb3dPolylineVertex
 10
179.236724476299
 20
1024.417233640031
 30
0.0
 70
    32
  0
SEQEND
  5
10000496
330
F4BFA
100
AcDbEntity
  8
VISIBLE
  0
LINE
  5
F4BFB
102
{ACAD_XDICTIONARY
360
10000497
102
}
330
1F
100
AcDbEntity
  8
VISIBLE
100
AcDbLine
 10
187.5882949550501
 20
1015.344514325331
 30
0.0
 11
187.5882949550501
 21
1019.96320166771
 31
0.0
  0
POLYLINE
  5
F4BFC
102
{ACAD_XDICTIONARY
360
1000049C
102
}
330
1F
100
AcDbEntity
  8
VISIBLE
100
AcDb3dPolyline
 66
     1
 10
0.0
 20
0.0
 30
0.0
 70
     8
  0
VERTEX
  5
10000499
330
F4BFC
100
AcDbEntity
  8
VISIBLE
100
AcDbVertex
100
AcDb3dPolylineVertex
 10
187.5882949550501
 20
1019.96320166771
 30
0.0
 70
    32
  0
VERTEX
  5
1000049A
330
F4BFC
100
AcDbEntity
  8
VISIBLE
100
AcDbVertex
100
AcDb3dPolylineVertex
 10
187.4637804799673
 20
1020.800721415933
 30
0.0
 70
    32
  0
VERTEX
  5
1000049B
330
F4BFC
100
AcDbEntity
  8
VISIBLE
100
AcDbVertex
100
AcDb3dPolylineVertex
 10
187.19124624624
 20
1021.264812789242
 30
0.0
 70
    32
  0
SEQEND
  5
1000049E
330
F4BFC
100
AcDbEntity
  8
VISIBLE
  0
POLYLINE
  5
F4BFD
102
{ACAD_XDICTIONARY
360
100004A2
102
}
330
1F
100
AcDbEntity
  8
VISIBLE
100
AcDb3dPolyline
 66
     1
 10
0.0
 20
0.0
 30
0.0
 70
     8
  0
VERTEX
  5
1000049F
330
F4BFD
100
AcDbEntity
  8
VISIBLE
100
AcDbVertex
100
AcDb3dPolylineVertex
 10
187.19124624624
 20
1021.264812789242
 30
0.0
 70
    32
  0
VERTEX
  5
100004A0
330
F4BFD
100
AcDbEntity
  8
VISIBLE
100
AcDbVertex
100
AcDb3dPolylineVertex
 10
186.6050431157037
 20
1021.611884633174
 30
0.0
 70
    32
  0
VERTEX
  5
100004A1
330
F4BFD
100
AcDbEntity
  8
VISIBLE
100
AcDbVertex
100
AcDb3dPolylineVertex
 10
185.945909744854
 20
1021.695209421102
 30
0.0
 70
    32
  0
SEQEND
  5
100004A4
330
F4BFD
100
AcDbEntity
  8
VISIBLE
  0
POLYLINE
  5
F4BFE
102
{ACAD_XDICTIONARY
360
100004A8
102
}
330
1F
100
AcDbEntity
  8
VISIBLE
100
AcDb3dPolyline
 66
     1
 10
0.0
 20
0.0
 30
0.0
 70
     8
  0
VERTEX
  5
100004A5
330
F4BFE
100
AcDbEntity
  8
VISIBLE
100
AcDbVertex
100
AcDb3dPolylineVertex
 10
185.945909744854
 20
1021.695209421102
 30
0.0
 70
    32
  0
VERTEX
  5
100004A6
330
F4BFE
100
AcDbEntity
  8
VISIBLE
100
AcDbVertex
100
AcDb3dPolylineVertex
 10
184.879950054156
 20
1021.505333016842
 30
0.0
 70
    32
  0
VERTEX
  5
100004A7
330
F4BFE
100
AcDbEntity
  8
VISIBLE
100
AcDbVertex
100
AcDb3dPolylineVertex
 10
184.3056087798485
 20
1021.089736193232
 30
0.0
 70
    32
  0
SEQEND
  5
100004AA
330
F4BFE
100
AcDbEntity
  8
VISIBLE
  0
POLYLINE
  5
F4BFF
102
{ACAD_XDICTIONARY
360
100004AE
102
}
330
1F
100
AcDbEntity
  8
VISIBLE
100
AcDb3dPolyline
 66
     1
 10
0.0
 20
0.0
 30
0.0
 70
     8
  0
VERTEX
  5
100004AB
330
F4BFF
100
AcDbEntity
  8
VISIBLE
100
AcDbVertex
100
AcDb3dPolylineVertex
 10
184.3056087798485
 20
1021.089736193232
 30
0.0
 70
    32
  0
VERTEX
  5
100004AC
330
F4BFF
100
AcDbEntity
  8
VISIBLE
100
AcDbVertex
100
AcDb3dPolylineVertex
 10
183.8854249494227
 20
1020.16421127608
 30
0.0
 70
    32
  0
VERTEX
  5
100004AD
330
F4BFF
100
AcDbEntity
  8
VISIBLE
100
AcDbVertex
100
AcDb3dPolylineVertex
 10
183.7845474821974
 20
1019.089902932847
 30
0.0
 70
    32
  0
SEQEND
  5
100004B0
330
F4BFF
100
AcDbEntity
  8
VISIBLE
  0
LINE
  5
F4C00
102
{ACAD_XDICTIONARY
360
100004B1
102
}
330
1F
100
AcDbEntity
  8
VISIBLE
100
AcDbLine
 10
183.7845474821974
 20
1019.089902932847
 30
0.0
 11
183.7845474821974
 21
1015.344514325331
 31
0.0
  0
LINE
  5
F4C01
102
{ACAD_XDICTIONARY
360
100004B3
102
}
330
1F
100
AcDbEntity
  8
VISIBLE
100
AcDbLine
 10
183.7845474821974
 20
1015.344514325331
 30
0.0
 11
182.7028242282738
 21
1015.344514325331
 31
0.0
  0
LINE
  5
F4C02
102
{ACAD_XDICTIONARY
360
100004B5
102
}
330
1F
100
AcDbEntity
  8
VISIBLE
100
AcDbLine
 10
182.7028242282738
 20
1015.344514325331
 30
0.0
 11
182.7028242282738
 21
1022.483054103151
 31
0.0
  0
LINE
  5
F4C03
102
{ACAD_XDICTIONARY
360
100004B7
102
}
330
1F
100
AcDbEntity
  8
VISIBLE
100
AcDbLine
 10
182.7028242282738
 20
1022.48305410315
 30
0.0
 11
183.5823756987088
 21
1022.48305410315
 31
0.0
  0
LINE
  5
F4C04
102
{ACAD_XDICTIONARY
360
100004B9
102
}
330
1F
100
AcDbEntity
  8
VISIBLE
100
AcDbLine
 10
183.5823756987088
 20
1022.48305410315
 30
0.0
 11
183.7574522947195
 21
1021.505543108757
 31
0.0
  0
LINE
  5
F4C05
102
{ACAD_XDICTIONARY
360
100004BB
102
}
330
1F
100
AcDbEntity
  8
VISIBLE
100
AcDbLine
 10
183.7574522947195
 20
1021.505543108757
 30
0.0
 11
183.8095584244847
 21
1021.505543108757
 31
0.0
  0
POLYLINE
  5
F4C06
102
{ACAD_XDICTIONARY
360
100004C0
102
}
330
1F
100
AcDbEntity
  8
VISIBLE
100
AcDb3dPolyline
 66
     1
 10
0.0
 20
0.0
 30
0.0
 70
     8
  0
VERTEX
  5
100004BD
330
F4C06
100
AcDbEntity
  8
VISIBLE
100
AcDbVertex
100
AcDb3dPolylineVertex
 10
183.8095584244847
 20
1021.505543108757
 30
0.0
 70
    32
  0
VERTEX
  5
100004BE
330
F4C06
100
AcDbEntity
  8
VISIBLE
100
AcDbVertex
100
AcDb3dPolylineVertex
 10
184.266391622342
 20
1022.02194903635
 30
0.0
 70
    32
  0
VERTEX
  5
100004BF
330
F4C06
100
AcDbEntity
  8
VISIBLE
100
AcDbVertex
100
AcDb3dPolylineVertex
 10
184.74225814728
 20
1022.323609346069
 30
0.0
 70
    32
  0
SEQEND
  5
100004C2
330
F4C06
100
AcDbEntity
  8
VISIBLE
  0
POLYLINE
  5
F4C07
102
{ACAD_XDICTIONARY
360
100004C6
102
}
330
1F
100
AcDbEntity
  8
VISIBLE
100
AcDb3dPolyline
 66
     1
 10
0.0
 20
0.0
 30
0.0
 70
     8
  0
VERTEX
  5
100004C3
330
F4C07
100
AcDbEntity
  8
VISIBLE
100
AcDbVertex
100
AcDb3dPolylineVertex
 10
184.74225814728
 20
1022.323609346069
 30
0.0
 70
    32
  0
VERTEX
  5
100004C4
330
F4C07
100
AcDbEntity
  8
VISIBLE
100
AcDbVertex
100
AcDb3dPolylineVertex
 10
185.4561971622657
 20
1022.558071923447
 30
0.0
 70
    32
  0
VERTEX
  5
100004C5
330
F4C07
100
AcDbEntity
  8
VISIBLE
100
AcDbVertex
100
AcDb3dPolylineVertex
 10
186.077217191862
 20
1022.614361550159
 30
0.0
 70
    32
  0
SEQEND
  5
100004C8
330
F4C07
100
AcDbEntity
  8
VISIBLE
  0
POLYLINE
  5
F4C08
102
{ACAD_XDICTIONARY
360
100004CC
102
}
330
1F
100
AcDbEntity
  8
VISIBLE
100
AcDb3dPolyline
 66
     1
 10
0.0
 20
0.0
 30
0.0
 70
     8
  0
VERTEX
  5
100004C9
330
F4C08
100
AcDbEntity
  8
VISIBLE
100
AcDbVertex
100
AcDb3dPolylineVertex
 10
186.077217191862
 20
1022.614361550159
 30
0.0
 70
    32
  0
VERTEX
  5
100004CA
330
F4C08
100
AcDbEntity
  8
VISIBLE
100
AcDbVertex
100
AcDb3dPolylineVertex
 10
187.3218483846756
 20
1022.419256191564
 30
0.0
 70
    32
  0
VERTEX
  5
100004CB
330
F4C08
100
AcDbEntity
  8
VISIBLE
100
AcDbVertex
100
AcDb3dPolylineVertex
 10
188.0186915869099
 20
1021.992214360763
 30
0.0
 70
    32
  0
SEQEND
  5
100004CE
330
F4C08
100
AcDbEntity
  8
VISIBLE
  0
POLYLINE
  5
F4C09
102
{ACAD_XDICTIONARY
360
100004D2
102
}
330
1F
100
AcDbEntity
  8
VISIBLE
100
AcDb3dPolyline
 66
     1
 10
0.0
 20
0.0
 30
0.0
 70
     8
  0
VERTEX
  5
100004CF
330
F4C09
100
AcDbEntity
  8
VISIBLE
100
AcDbVertex
100
AcDb3dPolylineVertex
 10
188.0186915869099
 20
1021.992214360763
 30
0.0
 70
    32
  0
VERTEX
  5
100004D0
330
F4C09
100
AcDbEntity
  8
VISIBLE
100
AcDbVertex
100
AcDb3dPolylineVertex
 10
188.5439213749421
 20
1021.061086992539
 30
0.0
 70
    32
  0
VERTEX
  5
100004D1
330
F4C09
100
AcDbEntity
  8
VISIBLE
100
AcDbVertex
100
AcDb3dPolylineVertex
 10
188.6700182089737
 20
1020.000718081141
 30
0.0
 70
    32
  0
SEQEND
  5
100004D4
330
F4C09
100
AcDbEntity
  8
VISIBLE
  0
LINE
  5
F4C0A
102
{ACAD_XDICTIONARY
360
100004D5
102
}
330
1F
100
AcDbEntity
  8
VISIBLE
100
AcDbLine
 10
188.6700182089737
 20
1020.000718081141
 30
0.0
 11
188.6700182089737
 21
1015.344514325331
 31
0.0
  0
LINE
  5
F4C0B
102
{ACAD_XDICTIONARY
360
100004D7
102
}
330
1F
100
AcDbEntity
  8
VISIBLE
100
AcDbLine
 10
188.6700182089737
 20
1015.344514325331
 30
0.0
 11
187.5882949550501
 21
1015.344514325331
 31
0.0
  0
POLYLINE
  5
F4C0C
102
{ACAD_XDICTIONARY
360
100004DC
102
}
330
1F
100
AcDbEntity
  8
VISIBLE
100
AcDb3dPolyline
 66
     1
 10
0.0
 20
0.0
 30
0.0
 70
     8
  0
VERTEX
  5
100004D9
330
F4C0C
100
AcDbEntity
  8
VISIBLE
100
AcDbVertex
100
AcDb3dPolylineVertex
 10
193.7430710029044
 20
1015.213206878323
 30
0.0
 70
    32
  0
VERTEX
  5
100004DA
330
F4C0C
100
AcDbEntity
  8
VISIBLE
100
AcDbVertex
100
AcDb3dPolylineVertex
 10
192.2259272525136
 20
1015.512564513955
 30
0.0
 70
    32
  0
VERTEX
  5
100004DB
330
F4C0C
100
AcDbEntity
  8
VISIBLE
100
AcDbVertex
100
AcDb3dPolylineVertex
 10
191.3420205433283
 20
1016.16779117562
 30
0.0
 70
    32
  0
SEQEND
  5
100004DE
330
F4C0C
100
AcDbEntity
  8
VISIBLE
  0
POLYLINE
  5
F4C0D
102
{ACAD_XDICTIONARY
360
100004E2
102
}
330
1F
100
AcDbEntity
  8
VISIBLE
100
AcDb3dPolyline
 66
     1
 10
0.0
 20
0.0
 30
0.0
 70
     8
  0
VERTEX
  5
100004DF
330
F4C0D
100
AcDbEntity
  8
VISIBLE
100
AcDbVertex
100
AcDb3dPolylineVertex
 10
191.3420205433283
 20
1016.16779117562
 30
0.0
 70
    32
  0
VERTEX
  5
100004E0
330
F4C0D
100
AcDbEntity
  8
VISIBLE
100
AcDbVertex
100
AcDb3dPolylineVertex
 10
190.6562805320734
 20
1017.485300919466
 30
0.0
 70
    32
  0
VERTEX
  5
100004E1
330
F4C0D
100
AcDbEntity
  8
VISIBLE
100
AcDbVertex
100
AcDb3dPolylineVertex
 10
190.4916485055618
 20
1018.868972942643
 30
0.0
 70
    32
  0
SEQEND
  5
100004E4
330
F4C0D
100
AcDbEntity
  8
VISIBLE
  0
POLYLINE
  5
F4C0E
102
{ACAD_XDICTIONARY
360
100004E8
102
}
330
1F
100
AcDbEntity
  8
VISIBLE
100
AcDb3dPolyline
 66
     1
 10
0.0
 20
0.0
 30
0.0
 70
     8
  0
VERTEX
  5
100004E5
330
F4C0E
100
AcDbEntity
  8
VISIBLE
100
AcDbVertex
100
AcDb3dPolylineVertex
 10
190.4916485055618
 20
1018.868972942643
 30
0.0
 70
    32
  0
VERTEX
  5
100004E6
330
F4C0E
100
AcDbEntity
  8
VISIBLE
100
AcDbVertex
100
AcDb3dPolylineVertex
 10
190.7625737020019
 20
1020.619272031828
 30
0.0
 70
    32
  0
VERTEX
  5
100004E7
330
F4C0E
100
AcDbEntity
  8
VISIBLE
100
AcDbVertex
100
AcDb3dPolylineVertex
 10
191.3555681370672
 20
1021.636850555765
 30
0.0
 70
    32
  0
SEQEND
  5
100004EA
330
F4C0E
100
AcDbEntity
  8
VISIBLE
  0
POLYLINE
  5
F4C0F
102
{ACAD_XDICTIONARY
360
100004EE
102
}
330
1F
100
AcDbEntity
  8
VISIBLE
100
AcDb3dPolyline
 66
     1
 10
0.0
 20
0.0
 30
0.0
 70
     8
  0
VERTEX
  5
100004EB
330
F4C0F
100
AcDbEntity
  8
VISIBLE
100
AcDbVertex
100
AcDb3dPolylineVertex
 10
191.3555681370672
 20
1021.636850555765
 30
0.0
 70
    32
  0
VERTEX
  5
100004EC
330
F4C0F
100
AcDbEntity
  8
VISIBLE
100
AcDbVertex
100
AcDb3dPolylineVertex
 10
192.5522516861199
 20
1022.425115421644
 30
0.0
 70
    32
  0
VERTEX
  5
100004ED
330
F4C0F
100
AcDbEntity
  8
VISIBLE
100
AcDbVertex
100
AcDb3dPolylineVertex
 10
193.8139353393849
 20
1022.614361550159
 30
0.0
 70
    32
  0
SEQEND
  5
100004F0
330
F4C0F
100
AcDbEntity
  8
VISIBLE
  0
POLYLINE
  5
F4C10
102
{ACAD_XDICTIONARY
360
100004F4
102
}
330
1F
100
AcDbEntity
  8
VISIBLE
100
AcDb3dPolyline
 66
     1
 10
0.0
 20
0.0
 30
0.0
 70
     8
  0
VERTEX
  5
100004F1
330
F4C10
100
AcDbEntity
  8
VISIBLE
100
AcDbVertex
100
AcDb3dPolylineVertex
 10
193.8139353393849
 20
1022.614361550159
 30
0.0
 70
    32
  0
VERTEX
  5
100004F2
330
F4C10
100
AcDbEntity
  8
VISIBLE
100
AcDbVertex
100
AcDb3dPolylineVertex
 10
194.3905209289137
 20
1022.579392918049
 30
0.0
 70
    32
  0
VERTEX
  5
100004F3
330
F4C10
100
AcDbEntity
  8
VISIBLE
100
AcDbVertex
100
AcDb3dPolylineVertex
 10
194.8435524635434
 20
1022.502854432461
 30
0.0
 70
    32
  0
SEQEND
  5
100004F6
330
F4C10
100
AcDbEntity
  8
VISIBLE
  0
POLYLINE
  5
F4C11
102
{ACAD_XDICTIONARY
360
100004FA
102
}
330
1F
100
AcDbEntity
  8
VISIBLE
100
AcDb3dPolyline
 66
     1
 10
0.0
 20
0.0
 30
0.0
 70
     8
  0
VERTEX
  5
100004F7
330
F4C11
100
AcDbEntity
  8
VISIBLE
100
AcDbVertex
100
AcDb3dPolylineVertex
 10
194.8435524635434
 20
1022.502854432461
 30
0.0
 70
    32
  0
VERTEX
  5
100004F8
330
F4C11
100
AcDbEntity
  8
VISIBLE
100
AcDbVertex
100
AcDb3dPolylineVertex
 10
195.3502007888524
 20
1022.365874503742
 30
0.0
 70
    32
  0
VERTEX
  5
100004F9
330
F4C11
100
AcDbEntity
  8
VISIBLE
100
AcDbVertex
100
AcDb3dPolylineVertex
 10
195.6501553523072
 20
1022.24128166104
 30
0.0
 70
    32
  0
SEQEND
  5
100004FC
330
F4C11
100
AcDbEntity
  8
VISIBLE
  0
LINE
  5
F4C12
102
{ACAD_XDICTIONARY
360
100004FD
102
}
330
1F
100
AcDbEntity
  8
VISIBLE
100
AcDbLine
 10
195.6501553523072
 20
1022.24128166104
 30
0.0
 11
195.3187603670011
 21
1021.324213777175
 31
0.0
  0
POLYLINE
  5
F4C13
102
{ACAD_XDICTIONARY
360
10000502
102
}
330
1F
100
AcDbEntity
  8
VISIBLE
100
AcDb3dPolyline
 66
     1
 10
0.0
 20
0.0
 30
0.0
 70
     8
  0
VERTEX
  5
100004FF
330
F4C13
100
AcDbEntity
  8
VISIBLE
100
AcDbVertex
100
AcDb3dPolylineVertex
 10
195.3187603670011
 20
1021.324213777175
 30
0.0
 70
    32
  0
VERTEX
  5
10000500
330
F4C13
100
AcDbEntity
  8
VISIBLE
100
AcDbVertex
100
AcDb3dPolylineVertex
 10
194.8969891754382
 20
1021.469597382502
 30
0.0
 70
    32
  0
VERTEX
  5
10000501
330
F4C13
100
AcDbEntity
  8
VISIBLE
100
AcDbVertex
100
AcDb3dPolylineVertex
 10
194.5371684205246
 20
1021.561817728903
 30
0.0
 70
    32
  0
SEQEND
  5
10000504
330
F4C13
100
AcDbEntity
  8
VISIBLE
  0
POLYLINE
  5
F4C14
102
{ACAD_XDICTIONARY
360
10000508
102
}
330
1F
100
AcDbEntity
  8
VISIBLE
100
AcDb3dPolyline
 66
     1
 10
0.0
 20
0.0
 30
0.0
 70
     8
  0
VERTEX
  5
10000505
330
F4C14
100
AcDbEntity
  8
VISIBLE
100
AcDbVertex
100
AcDb3dPolylineVertex
 10
194.5371684205246
 20
1021.561817728903
 30
0.0
 70
    32
  0
VERTEX
  5
10000506
330
F4C14
100
AcDbEntity
  8
VISIBLE
100
AcDbVertex
100
AcDb3dPolylineVertex
 10
194.0940145407021
 20
1021.63745081838
 30
0.0
 70
    32
  0
VERTEX
  5
10000507
330
F4C14
100
AcDbEntity
  8
VISIBLE
100
AcDbVertex
100
AcDb3dPolylineVertex
 10
193.7889243970977
 20
1021.655608762481
 30
0.0
 70
    32
  0
SEQEND
  5
1000050A
330
F4C14
100
AcDbEntity
  8
VISIBLE
  0
POLYLINE
  5
F4C15
102
{ACAD_XDICTIONARY
360
1000050E
102
}
330
1F
100
AcDbEntity
  8
VISIBLE
100
AcDb3dPolyline
 66
     1
 10
0.0
 20
0.0
 30
0.0
 70
     8
  0
VERTEX
  5
1000050B
330
F4C15
100
AcDbEntity
  8
VISIBLE
100
AcDbVertex
100
AcDb3dPolylineVertex
 10
193.7889243970977
 20
1021.655608762481
 30
0.0
 70
    32
  0
VERTEX
  5
1000050C
330
F4C15
100
AcDbEntity
  8
VISIBLE
100
AcDbVertex
100
AcDb3dPolylineVertex
 10
192.0342367212395
 20
1020.78564148513
 30
0.0
 70
    32
  0
VERTEX
  5
1000050D
330
F4C15
100
AcDbEntity
  8
VISIBLE
100
AcDbVertex
100
AcDb3dPolylineVertex
 10
191.6129724181068
 20
1018.881478413786
 30
0.0
 70
    32
  0
SEQEND
  5
10000510
330
F4C15
100
AcDbEntity
  8
VISIBLE
  0
POLYLINE
  5
F4C16
102
{ACAD_XDICTIONARY
360
10000514
102
}
330
1F
100
AcDbEntity
  8
VISIBLE
100
AcDb3dPolyline
 66
     1
 10
0.0
 20
0.0
 30
0.0
 70
     8
  0
VERTEX
  5
10000511
330
F4C16
100
AcDbEntity
  8
VISIBLE
100
AcDbVertex
100
AcDb3dPolylineVertex
 10
191.6129724181068
 20
1018.881478413786
 30
0.0
 70
    32
  0
VERTEX
  5
10000512
330
F4C16
100
AcDbEntity
  8
VISIBLE
100
AcDbVertex
100
AcDb3dPolylineVertex
 10
191.7793185278632
 20
1017.600337914818
 30
0.0
 70
    32
  0
VERTEX
  5
10000513
330
F4C16
100
AcDbEntity
  8
VISIBLE
100
AcDbVertex
100
AcDb3dPolylineVertex
 10
192.1434128191156
 20
1016.862886946686
 30
0.0
 70
    32
  0
SEQEND
  5
10000516
330
F4C16
100
AcDbEntity
  8
VISIBLE
  0
POLYLINE
  5
F4C17
102
{ACAD_XDICTIONARY
360
1000051A
102
}
330
1F
100
AcDbEntity
  8
VISIBLE
100
AcDb3dPolyline
 66
     1
 10
0.0
 20
0.0
 30
0.0
 70
     8
  0
VERTEX
  5
10000517
330
F4C17
100
AcDbEntity
  8
VISIBLE
100
AcDbVertex
100
AcDb3dPolylineVertex
 10
192.1434128191156
 20
1016.862886946686
 30
0.0
 70
    32
  0
VERTEX
  5
10000518
330
F4C17
100
AcDbEntity
  8
VISIBLE
100
AcDbVertex
100
AcDb3dPolylineVertex
 10
192.8979696043758
 20
1016.295638775611
 30
0.0
 70
    32
  0
VERTEX
  5
10000519
330
F4C17
100
AcDbEntity
  8
VISIBLE
100
AcDbVertex
100
AcDb3dPolylineVertex
 10
193.7159758154265
 20
1016.159454194857
 30
0.0
 70
    32
  0
SEQEND
  5
1000051C
330
F4C17
100
AcDbEntity
  8
VISIBLE
  0
POLYLINE
  5
F4C18
102
{ACAD_XDICTIONARY
360
10000520
102
}
330
1F
100
AcDbEntity
  8
VISIBLE
100
AcDb3dPolyline
 66
     1
 10
0.0
 20
0.0
 30
0.0
 70
     8
  0
VERTEX
  5
1000051D
330
F4C18
100
AcDbEntity
  8
VISIBLE
100
AcDbVertex
100
AcDb3dPolylineVertex
 10
193.7159758154265
 20
1016.159454194857
 30
0.0
 70
    32
  0
VERTEX
  5
1000051E
330
F4C18
100
AcDbEntity
  8
VISIBLE
100
AcDbVertex
100
AcDb3dPolylineVertex
 10
194.7294592144136
 20
1016.279720144544
 30
0.0
 70
    32
  0
VERTEX
  5
1000051F
330
F4C18
100
AcDbEntity
  8
VISIBLE
100
AcDbVertex
100
AcDb3dPolylineVertex
 10
195.545943092777
 20
1016.542955309928
 30
0.0
 70
    32
  0
SEQEND
  5
10000522
330
F4C18
100
AcDbEntity
  8
VISIBLE
  0
LINE
  5
F4C19
102
{ACAD_XDICTIONARY
360
10000523
102
}
330
1F
100
AcDbEntity
  8
VISIBLE
100
AcDbLine
 10
195.545943092777
 20
1016.542955309929
 30
0.0
 11
195.545943092777
 21
1015.586286767441
 31
0.0
  0
POLYLINE
  5
F4C1A
102
{ACAD_XDICTIONARY
360
10000528
102
}
330
1F
100
AcDbEntity
  8
VISIBLE
100
AcDb3dPolyline
 66
     1
 10
0.0
 20
0.0
 30
0.0
 70
     8
  0
VERTEX
  5
10000525
330
F4C1A
100
AcDbEntity
  8
VISIBLE
100
AcDbVertex
100
AcDb3dPolylineVertex
 10
195.545943092777
 20
1015.586286767441
 30
0.0
 70
    32
  0
VERTEX
  5
10000526
330
F4C1A
100
AcDbEntity
  8
VISIBLE
100
AcDbVertex
100
AcDb3dPolylineVertex
 10
194.6282616071271
 20
1015.285435144856
 30
0.0
 70
    32
  0
VERTEX
  5
10000527
330
F4C1A
100
AcDbEntity
  8
VISIBLE
100
AcDbVertex
100
AcDb3dPolylineVertex
 10
193.7430710029044
 20
1015.213206878323
 30
0.0
 70
    32
  0
SEQEND
  5
1000052A
330
F4C1A
100
AcDbEntity
  8
VISIBLE
  0
LINE
  5
F4C1B
102
{ACAD_XDICTIONARY
360
1000052B
102
}
330
1F
100
AcDbEntity
  8
VISIBLE
100
AcDbLine
 10
202.1259051595145
 20
1015.344514325331
 30
0.0
 11
202.1259051595145
 21
1019.96320166771
 31
0.0
  0
POLYLINE
  5
F4C1C
102
{ACAD_XDICTIONARY
360
10000530
102
}
330
1F
100
AcDbEntity
  8
VISIBLE
100
AcDb3dPolyline
 66
     1
 10
0.0
 20
0.0
 30
0.0
 70
     8
  0
VERTEX
  5
1000052D
330
F4C1C
100
AcDbEntity
  8
VISIBLE
100
AcDbVertex
100
AcDb3dPolylineVertex
 10
202.1259051595145
 20
1019.96320166771
 30
0.0
 70
    32
  0
VERTEX
  5
1000052E
330
F4C1C
100
AcDbEntity
  8
VISIBLE
100
AcDbVertex
100
AcDb3dPolylineVertex
 10
202.0013906844317
 20
1020.800721415933
 30
0.0
 70
    32
  0
VERTEX
  5
1000052F
330
F4C1C
100
AcDbEntity
  8
VISIBLE
100
AcDbVertex
100
AcDb3dPolylineVertex
 10
201.7288564507044
 20
1021.264812789242
 30
0.0
 70
    32
  0
SEQEND
  5
10000532
330
F4C1C
100
AcDbEntity
  8
VISIBLE
  0
POLYLINE
  5
F4C1D
102
{ACAD_XDICTIONARY
360
10000536
102
}
330
1F
100
AcDbEntity
  8
VISIBLE
100
AcDb3dPolyline
 66
     1
 10
0.0
 20
0.0
 30
0.0
 70
     8
  0
VERTEX
  5
10000533
330
F4C1D
100
AcDbEntity
  8
VISIBLE
100
AcDbVertex
100
AcDb3dPolylineVertex
 10
201.7288564507044
 20
1021.264812789242
 30
0.0
 70
    32
  0
VERTEX
  5
10000534
330
F4C1D
100
AcDbEntity
  8
VISIBLE
100
AcDbVertex
100
AcDb3dPolylineVertex
 10
201.1426533201681
 20
1021.611884633174
 30
0.0
 70
    32
  0
VERTEX
  5
10000535
330
F4C1D
100
AcDbEntity
  8
VISIBLE
100
AcDbVertex
100
AcDb3dPolylineVertex
 10
200.4835199493184
 20
1021.695209421102
 30
0.0
 70
    32
  0
SEQEND
  5
10000538
330
F4C1D
100
AcDbEntity
  8
VISIBLE
  0
POLYLINE
  5
F4C1E
102
{ACAD_XDICTIONARY
360
1000053C
102
}
330
1F
100
AcDbEntity
  8
VISIBLE
100
AcDb3dPolyline
 66
     1
 10
0.0
 20
0.0
 30
0.0
 70
     8
  0
VERTEX
  5
10000539
330
F4C1E
100
AcDbEntity
  8
VISIBLE
100
AcDbVertex
100
AcDb3dPolylineVertex
 10
200.4835199493184
 20
1021.695209421102
 30
0.0
 70
    32
  0
VERTEX
  5
1000053A
330
F4C1E
100
AcDbEntity
  8
VISIBLE
100
AcDbVertex
100
AcDb3dPolylineVertex
 10
199.4134984815929
 20
1021.503045349321
 30
0.0
 70
    32
  0
VERTEX
  5
1000053B
330
F4C1E
100
AcDbEntity
  8
VISIBLE
100
AcDbVertex
100
AcDb3dPolylineVertex
 10
198.840092616527
 20
1021.082441335065
 30
0.0
 70
    32
  0
SEQEND
  5
1000053E
330
F4C1E
100
AcDbEntity
  8
VISIBLE
  0
POLYLINE
  5
F4C1F
102
{ACAD_XDICTIONARY
360
10000542
102
}
330
1F
100
AcDbEntity
  8
VISIBLE
100
AcDb3dPolyline
 66
     1
 10
0.0
 20
0.0
 30
0.0
 70
     8
  0
VERTEX
  5
1000053F
330
F4C1F
100
AcDbEntity
  8
VISIBLE
100
AcDbVertex
100
AcDb3dPolylineVertex
 10
198.840092616527
 20
1021.082441335065
 30
0.0
 70
    32
  0
VERTEX
  5
10000540
330
F4C1F
100
AcDbEntity
  8
VISIBLE
100
AcDbVertex
100
AcDb3dPolylineVertex
 10
198.4224298890837
 20
1020.151687463579
 30
0.0
 70
    32
  0
VERTEX
  5
10000541
330
F4C1F
100
AcDbEntity
  8
VISIBLE
100
AcDbVertex
100
AcDb3dPolylineVertex
 10
198.3221576866618
 20
1019.077397461703
 30
0.0
 70
    32
  0
SEQEND
  5
10000544
330
F4C1F
100
AcDbEntity
  8
VISIBLE
  0
LINE
  5
F4C20
102
{ACAD_XDICTIONARY
360
10000545
102
}
330
1F
100
AcDbEntity
  8
VISIBLE
100
AcDbLine
 10
198.3221576866618
 20
1019.077397461703
 30
0.0
 11
198.3221576866618
 21
1015.344514325331
 31
0.0
  0
LINE
  5
F4C21
102
{ACAD_XDICTIONARY
360
10000547
102
}
330
1F
100
AcDbEntity
  8
VISIBLE
100
AcDbLine
 10
198.3221576866618
 20
1015.344514325331
 30
0.0
 11
197.2404344327382
 21
1015.344514325331
 31
0.0
  0
LINE
  5
F4C22
102
{ACAD_XDICTIONARY
360
10000549
102
}
330
1F
100
AcDbEntity
  8
VISIBLE
100
AcDbLine
 10
197.2404344327383
 20
1015.344514325331
 30
0.0
 11
197.2404344327383
 21
1025.480198687239
 31
0.0
  0
LINE
  5
F4C23
102
{ACAD_XDICTIONARY
360
1000054B
102
}
330
1F
100
AcDbEntity
  8
VISIBLE
100
AcDbLine
 10
197.2404344327382
 20
1025.480198687239
 30
0.0
 11
198.3221576866618
 21
1025.480198687239
 31
0.0
  0
LINE
  5
F4C24
102
{ACAD_XDICTIONARY
360
1000054D
102
}
330
1F
100
AcDbEntity
  8
VISIBLE
100
AcDbLine
 10
198.3221576866618
 20
1025.480198687239
 30
0.0
 11
198.3221576866618
 21
1022.41218976667
 31
0.0
  0
POLYLINE
  5
F4C25
102
{ACAD_XDICTIONARY
360
10000552
102
}
330
1F
100
AcDbEntity
  8
VISIBLE
100
AcDb3dPolyline
 66
     1
 10
0.0
 20
0.0
 30
0.0
 70
     8
  0
VERTEX
  5
1000054F
330
F4C25
100
AcDbEntity
  8
VISIBLE
100
AcDbVertex
100
AcDb3dPolylineVertex
 10
198.3221576866618
 20
1022.41218976667
 30
0.0
 70
    32
  0
VERTEX
  5
10000550
330
F4C25
100
AcDbEntity
  8
VISIBLE
100
AcDbVertex
100
AcDb3dPolylineVertex
 10
198.3058172043675
 20
1021.850730795037
 30
0.0
 70
    32
  0
VERTEX
  5
10000551
330
F4C25
100
AcDbEntity
  8
VISIBLE
100
AcDbVertex
100
AcDb3dPolylineVertex
 10
198.2700515568967
 20
1021.493037637613
 30
0.0
 70
    32
  0
SEQEND
  5
10000554
330
F4C25
100
AcDbEntity
  8
VISIBLE
  0
LINE
  5
F4C26
102
{ACAD_XDICTIONARY
360
10000555
102
}
330
1F
100
AcDbEntity
  8
VISIBLE
100
AcDbLine
 10
198.2700515568967
 20
1021.493037637613
 30
0.0
 11
198.3346631578055
 21
1021.493037637613
 31
0.0
  0
POLYLINE
  5
F4C27
102
{ACAD_XDICTIONARY
360
1000055A
102
}
330
1F
100
AcDbEntity
  8
VISIBLE
100
AcDb3dPolyline
 66
     1
 10
0.0
 20
0.0
 30
0.0
 70
     8
  0
VERTEX
  5
10000557
330
F4C27
100
AcDbEntity
  8
VISIBLE
100
AcDbVertex
100
AcDb3dPolylineVertex
 10
198.3346631578055
 20
1021.493037637613
 30
0.0
 70
    32
  0
VERTEX
  5
10000558
330
F4C27
100
AcDbEntity
  8
VISIBLE
100
AcDbVertex
100
AcDb3dPolylineVertex
 10
198.776789921598
 20
1022.000993201506
 30
0.0
 70
    32
  0
VERTEX
  5
10000559
330
F4C27
100
AcDbEntity
  8
VISIBLE
100
AcDbVertex
100
AcDb3dPolylineVertex
 10
199.2433940609089
 20
1022.303809016758
 30
0.0
 70
    32
  0
SEQEND
  5
1000055C
330
F4C27
100
AcDbEntity
  8
VISIBLE
  0
POLYLINE
  5
F4C28
102
{ACAD_XDICTIONARY
360
10000560
102
}
330
1F
100
AcDbEntity
  8
VISIBLE
100
AcDb3dPolyline
 66
     1
 10
0.0
 20
0.0
 30
0.0
 70
     8
  0
VERTEX
  5
1000055D
330
F4C28
100
AcDbEntity
  8
VISIBLE
100
AcDbVertex
100
AcDb3dPolylineVertex
 10
199.2433940609089
 20
1022.303809016758
 30
0.0
 70
    32
  0
VERTEX
  5
1000055E
330
F4C28
100
AcDbEntity
  8
VISIBLE
100
AcDbVertex
100
AcDb3dPolylineVertex
 10
199.9556523405729
 20
1022.54247343244
 30
0.0
 70
    32
  0
VERTEX
  5
1000055F
330
F4C28
100
AcDbEntity
  8
VISIBLE
100
AcDbVertex
100
AcDb3dPolylineVertex
 10
200.5877322088486
 20
1022.599771833824
 30
0.0
 70
    32
  0
SEQEND
  5
10000562
330
F4C28
100
AcDbEntity
  8
VISIBLE
  0
POLYLINE
  5
F4C29
102
{ACAD_XDICTIONARY
360
10000566
102
}
330
1F
100
AcDbEntity
  8
VISIBLE
100
AcDb3dPolyline
 66
     1
 10
0.0
 20
0.0
 30
0.0
 70
     8
  0
VERTEX
  5
10000563
330
F4C29
100
AcDbEntity
  8
VISIBLE
100
AcDbVertex
100
AcDb3dPolylineVertex
 10
200.5877322088486
 20
1022.599771833824
 30
0.0
 70
    32
  0
VERTEX
  5
10000564
330
F4C29
100
AcDbEntity
  8
VISIBLE
100
AcDbVertex
100
AcDb3dPolylineVertex
 10
201.848797258141
 20
1022.40466647523
 30
0.0
 70
    32
  0
VERTEX
  5
10000565
330
F4C29
100
AcDbEntity
  8
VISIBLE
100
AcDbVertex
100
AcDb3dPolylineVertex
 10
202.5521333009931
 20
1021.977624644429
 30
0.0
 70
    32
  0
SEQEND
  5
10000568
330
F4C29
100
AcDbEntity
  8
VISIBLE
  0
POLYLINE
  5
F4C2A
102
{ACAD_XDICTIONARY
360
1000056C
102
}
330
1F
100
AcDbEntity
  8
VISIBLE
100
AcDb3dPolyline
 66
     1
 10
0.0
 20
0.0
 30
0.0
 70
     8
  0
VERTEX
  5
10000569
330
F4C2A
100
AcDbEntity
  8
VISIBLE
100
AcDbVertex
100
AcDb3dPolylineVertex
 10
202.5521333009931
 20
1021.977624644429
 30
0.0
 70
    32
  0
VERTEX
  5
1000056A
330
F4C2A
100
AcDbEntity
  8
VISIBLE
100
AcDbVertex
100
AcDb3dPolylineVertex
 10
203.0807245596687
 20
1021.051072611248
 30
0.0
 70
    32
  0
VERTEX
  5
1000056B
330
F4C2A
100
AcDbEntity
  8
VISIBLE
100
AcDbVertex
100
AcDb3dPolylineVertex
 10
203.2076284134381
 20
1020.000718081141
 30
0.0
 70
    32
  0
SEQEND
  5
1000056E
330
F4C2A
100
AcDbEntity
  8
VISIBLE
  0
LINE
  5
F4C2B
102
{ACAD_XDICTIONARY
360
1000056F
102
}
330
1F
100
AcDbEntity
  8
VISIBLE
100
AcDbLine
 10
203.2076284134381
 20
1020.000718081141
 30
0.0
 11
203.2076284134381
 21
1015.344514325331
 31
0.0
  0
LINE
  5
F4C2C
102
{ACAD_XDICTIONARY
360
10000571
102
}
330
1F
100
AcDbEntity
  8
VISIBLE
100
AcDbLine
 10
203.2076284134381
 20
1015.344514325331
 30
0.0
 11
202.1259051595145
 21
1015.344514325331
 31
0.0
  0
POLYLINE
  5
F4C2D
102
{ACAD_XDICTIONARY
360
10000576
102
}
330
1F
100
AcDbEntity
  8
VISIBLE
100
AcDb3dPolyline
 66
     1
 10
0.0
 20
0.0
 30
0.0
 70
     8
  0
VERTEX
  5
10000573
330
F4C2D
100
AcDbEntity
  8
VISIBLE
100
AcDbVertex
100
AcDb3dPolylineVertex
 10
213.4975469194511
 20
1017.291199333355
 30
0.0
 70
    32
  0
VERTEX
  5
10000574
330
F4C2D
100
AcDbEntity
  8
VISIBLE
100
AcDbVertex
100
AcDb3dPolylineVertex
 10
213.2648584515798
 20
1016.318193643366
 30
0.0
 70
    32
  0
VERTEX
  5
10000575
330
F4C2D
100
AcDbEntity
  8
VISIBLE
100
AcDbVertex
100
AcDb3dPolylineVertex
 10
212.755555631596
 20
1015.754068505285
 30
0.0
 70
    32
  0
SEQEND
  5
10000578
330
F4C2D
100
AcDbEntity
  8
VISIBLE
  0
POLYLINE
  5
F4C2E
102
{ACAD_XDICTIONARY
360
1000057C
102
}
330
1F
100
AcDbEntity
  8
VISIBLE
100
AcDb3dPolyline
 66
     1
 10
0.0
 20
0.0
 30
0.0
 70
     8
  0
VERTEX
  5
10000579
330
F4C2E
100
AcDbEntity
  8
VISIBLE
100
AcDbVertex
100
AcDb3dPolylineVertex
 10
212.755555631596
 20
1015.754068505285
 30
0.0
 70
    32
  0
VERTEX
  5
1000057A
330
F4C2E
100
AcDbEntity
  8
VISIBLE
100
AcDbVertex
100
AcDb3dPolylineVertex
 10
211.7362830331676
 20
1015.317917689303
 30
0.0
 70
    32
  0
VERTEX
  5
1000057B
330
F4C2E
100
AcDbEntity
  8
VISIBLE
100
AcDbVertex
100
AcDb3dPolylineVertex
 10
210.6713104409918
 20
1015.213206878323
 30
0.0
 70
    32
  0
SEQEND
  5
1000057E
330
F4C2E
100
AcDbEntity
  8
VISIBLE
  0
POLYLINE
  5
F4C2F
102
{ACAD_XDICTIONARY
360
10000582
102
}
330
1F
100
AcDbEntity
  8
VISIBLE
100
AcDb3dPolyline
 66
     1
 10
0.0
 20
0.0
 30
0.0
 70
     8
  0
VERTEX
  5
1000057F
330
F4C2F
100
AcDbEntity
  8
VISIBLE
100
AcDbVertex
100
AcDb3dPolylineVertex
 10
210.6713104409918
 20
1015.213206878323
 30
0.0
 70
    32
  0
VERTEX
  5
10000580
330
F4C2F
100
AcDbEntity
  8
VISIBLE
100
AcDbVertex
100
AcDb3dPolylineVertex
 10
209.2777007367462
 20
1015.354388645346
 30
0.0
 70
    32
  0
VERTEX
  5
10000581
330
F4C2F
100
AcDbEntity
  8
VISIBLE
100
AcDbVertex
100
AcDb3dPolylineVertex
 10
208.4578420485701
 20
1015.663403839493
 30
0.0
 70
    32
  0
SEQEND
  5
10000584
330
F4C2F
100
AcDbEntity
  8
VISIBLE
  0
LINE
  5
F4C30
102
{ACAD_XDICTIONARY
360
10000585
102
}
330
1F
100
AcDbEntity
  8
VISIBLE
100
AcDbLine
 10
208.4578420485701
 20
1015.663403839493
 30
0.0
 11
208.4578420485701
 21
1016.665925776174
 31
0.0
  0
POLYLINE
  5
F4C31
102
{ACAD_XDICTIONARY
360
1000058A
102
}
330
1F
100
AcDbEntity
  8
VISIBLE
100
AcDb3dPolyline
 66
     1
 10
0.0
 20
0.0
 30
0.0
 70
     8
  0
VERTEX
  5
10000587
330
F4C31
100
AcDbEntity
  8
VISIBLE
100
AcDbVertex
100
AcDb3dPolylineVertex
 10
208.4578420485701
 20
1016.665925776174
 30
0.0
 70
    32
  0
VERTEX
  5
10000588
330
F4C31
100
AcDbEntity
  8
VISIBLE
100
AcDbVertex
100
AcDb3dPolylineVertex
 10
209.0576311229568
 20
1016.409100081599
 30
0.0
 70
    32
  0
VERTEX
  5
10000589
330
F4C31
100
AcDbEntity
  8
VISIBLE
100
AcDbVertex
100
AcDb3dPolylineVertex
 10
209.5614498769951
 20
1016.25637159622
 30
0.0
 70
    32
  0
SEQEND
  5
1000058C
330
F4C31
100
AcDbEntity
  8
VISIBLE
  0
POLYLINE
  5
F4C32
102
{ACAD_XDICTIONARY
360
10000590
102
}
330
1F
100
AcDbEntity
  8
VISIBLE
100
AcDb3dPolyline
 66
     1
 10
0.0
 20
0.0
 30
0.0
 70
     8
  0
VERTEX
  5
1000058D
330
F4C32
100
AcDbEntity
  8
VISIBLE
100
AcDbVertex
100
AcDb3dPolylineVertex
 10
209.5614498769951
 20
1016.25637159622
 30
0.0
 70
    32
  0
VERTEX
  5
1000058E
330
F4C32
100
AcDbEntity
  8
VISIBLE
100
AcDbVertex
100
AcDb3dPolylineVertex
 10
210.2081594791127
 20
1016.136199020719
 30
0.0
 70
    32
  0
VERTEX
  5
1000058F
330
F4C32
100
AcDbEntity
  8
VISIBLE
100
AcDbVertex
100
AcDb3dPolylineVertex
 10
210.6984056284697
 20
1016.107348065092
 30
0.0
 70
    32
  0
SEQEND
  5
10000592
330
F4C32
100
AcDbEntity
  8
VISIBLE
  0
POLYLINE
  5
F4C33
102
{ACAD_XDICTIONARY
360
10000596
102
}
330
1F
100
AcDbEntity
  8
VISIBLE
100
AcDb3dPolyline
 66
     1
 10
0.0
 20
0.0
 30
0.0
 70
     8
  0
VERTEX
  5
10000593
330
F4C33
100
AcDbEntity
  8
VISIBLE
100
AcDbVertex
100
AcDb3dPolylineVertex
 10
210.6984056284697
 20
1016.107348065092
 30
0.0
 70
    32
  0
VERTEX
  5
10000594
330
F4C33
100
AcDbEntity
  8
VISIBLE
100
AcDbVertex
100
AcDb3dPolylineVertex
 10
211.5235999843337
 20
1016.191991763377
 30
0.0
 70
    32
  0
VERTEX
  5
10000595
330
F4C33
100
AcDbEntity
  8
VISIBLE
100
AcDbVertex
100
AcDb3dPolylineVertex
 10
212.000016750002
 20
1016.377257817275
 30
0.0
 70
    32
  0
SEQEND
  5
10000598
330
F4C33
100
AcDbEntity
  8
VISIBLE
  0
POLYLINE
  5
F4C34
102
{ACAD_XDICTIONARY
360
1000059C
102
}
330
1F
100
AcDbEntity
  8
VISIBLE
100
AcDb3dPolyline
 66
     1
 10
0.0
 20
0.0
 30
0.0
 70
     8
  0
VERTEX
  5
10000599
330
F4C34
100
AcDbEntity
  8
VISIBLE
100
AcDbVertex
100
AcDb3dPolylineVertex
 10
209.8574126940609
 20
1021.466984572731
 30
0.0
 70
    32
  0
VERTEX
  5
1000059A
330
F4C34
100
AcDbEntity
  8
VISIBLE
100
AcDbVertex
100
AcDb3dPolylineVertex
 10
209.5422748212415
 20
1021.140174926844
 30
0.0
 70
    32
  0
VERTEX
  5
1000059B
330
F4C34
100
AcDbEntity
  8
VISIBLE
100
AcDbVertex
100
AcDb3dPolylineVertex
 10
209.4666167208226
 20
1020.803152479523
 30
0.0
 70
    32
  0
SEQEND
  5
1000059E
330
F4C34
100
AcDbEntity
  8
VISIBLE
  0
POLYLINE
  5
F4C35
102
{ACAD_XDICTIONARY
360
100005A2
102
}
330
1F
100
AcDbEntity
  8
VISIBLE
100
AcDb3dPolyline
 66
     1
 10
0.0
 20
0.0
 30
0.0
 70
     8
  0
VERTEX
  5
1000059F
330
F4C35
100
AcDbEntity
  8
VISIBLE
100
AcDbVertex
100
AcDb3dPolylineVertex
 10
209.4666167208226
 20
1020.803152479523
 30
0.0
 70
    32
  0
VERTEX
  5
100005A0
330
F4C35
100
AcDbEntity
  8
VISIBLE
100
AcDbVertex
100
AcDb3dPolylineVertex
 10
209.5126968808926
 20
1020.508136743472
 30
0.0
 70
    32
  0
VERTEX
  5
100005A1
330
F4C35
100
AcDbEntity
  8
VISIBLE
100
AcDbVertex
100
AcDb3dPolylineVertex
 10
209.6135560067602
 20
1020.314396982327
 30
0.0
 70
    32
  0
SEQEND
  5
100005A4
330
F4C35
100
AcDbEntity
  8
VISIBLE
  0
POLYLINE
  5
F4C36
102
{ACAD_XDICTIONARY
360
100005A8
102
}
330
1F
100
AcDbEntity
  8
VISIBLE
100
AcDb3dPolyline
 66
     1
 10
0.0
 20
0.0
 30
0.0
 70
     8
  0
VERTEX
  5
100005A5
330
F4C36
100
AcDbEntity
  8
VISIBLE
100
AcDbVertex
100
AcDb3dPolylineVertex
 10
209.6135560067602
 20
1020.314396982327
 30
0.0
 70
    32
  0
VERTEX
  5
100005A6
330
F4C36
100
AcDbEntity
  8
VISIBLE
100
AcDbVertex
100
AcDb3dPolylineVertex
 10
209.8340124564569
 20
1020.095014335752
 30
0.0
 70
    32
  0
VERTEX
  5
100005A7
330
F4C36
100
AcDbEntity
  8
VISIBLE
100
AcDbVertex
100
AcDb3dPolylineVertex
 10
210.085637542432
 20
1019.930895867255
 30
0.0
 70
    32
  0
SEQEND
  5
100005AA
330
F4C36
100
AcDbEntity
  8
VISIBLE
  0
POLYLINE
  5
F4C37
102
{ACAD_XDICTIONARY
360
100005AE
102
}
330
1F
100
AcDbEntity
  8
VISIBLE
100
AcDb3dPolyline
 66
     1
 10
0.0
 20
0.0
 30
0.0
 70
     8
  0
VERTEX
  5
100005AB
330
F4C37
100
AcDbEntity
  8
VISIBLE
100
AcDbVertex
100
AcDb3dPolylineVertex
 10
210.085637542432
 20
1019.930895867255
 30
0.0
 70
    32
  0
VERTEX
  5
100005AC
330
F4C37
100
AcDbEntity
  8
VISIBLE
100
AcDbVertex
100
AcDb3dPolylineVertex
 10
210.6380392181651
 20
1019.675330724172
 30
0.0
 70
    32
  0
VERTEX
  5
100005AD
330
F4C37
100
AcDbEntity
  8
VISIBLE
100
AcDbVertex
100
AcDb3dPolylineVertex
 10
211.3361846567946
 20
1019.402539711437
 30
0.0
 70
    32
  0
SEQEND
  5
100005B0
330
F4C37
100
AcDbEntity
  8
VISIBLE
  0
ENDSEC
  0
SECTION
  2
OBJECTS
  0
DICTIONARY
  5
C
330
0
100
AcDbDictionary
  3
ACAD_GROUP
350
D
  3
ACAD_LAYOUT
350
1A
  3
ACAD_MATERIAL
350
43
  3
ACAD_MLEADERSTYLE
350
6B
  3
ACAD_MLINESTYLE
350
17
  3
ACAD_PLOTSETTINGS
350
19
  3
ACAD_SCALELIST
350
47
  3
ACAD_VISUALSTYLE
350
2A
  3
ACDBHEADERROUNDTRIPXREC
350
100005B3
  3
ACDBVARIABLEDICTIONARY
350
100005D4
  3
DWGPROPS
350
100005DB
  3
ONSHAPE_DATA
350
10000001
  0
DICTIONARY
  5
100005DC
330
8
100
AcDbDictionary
280
     1
  3
ACAD_XREC_ROUNDTRIP
360
100005DD
  0
DICTIONARY
  5
100005B1
330
1F
100
AcDbDictionary
280
     1
  3
ACAD_SORTENTS
360
100005B2
  0
DICTIONARY
  5
1000004B
330
F4B0D
100
AcDbDictionary
280
     1
  3
BTDETID
360
1000004C
  0
DICTIONARY
  5
10000051
330
F4B0E
100
AcDbDictionary
280
     1
  3
BTDETID
360
10000052
  0
DICTIONARY
  5
10000054
330
F4B0F
100
AcDbDictionary
280
     1
  3
BTDETID
360
10000055
  0
DICTIONARY
  5
10000059
330
F4B10
100
AcDbDictionary
280
     1
  3
BTDETID
360
1000005A
  0
DICTIONARY
  5
1000005F
330
F4B11
100
AcDbDictionary
280
     1
  3
BTDETID
360
10000060
  0
DICTIONARY
  5
10000065
330
F4B12
100
AcDbDictionary
280
     1
  3
BTDETID
360
10000066
  0
DICTIONARY
  5
1000006B
330
F4B13
100
AcDbDictionary
280
     1
  3
BTDETID
360
1000006C
  0
DICTIONARY
  5
1000006E
330
F4B14
100
AcDbDictionary
280
     1
  3
BTDETID
360
1000006F
  0
DICTIONARY
  5
10000073
330
F4B15
100
AcDbDictionary
280
     1
  3
BTDETID
360
10000074
  0
DICTIONARY
  5
10000079
330
F4B16
100
AcDbDictionary
280
     1
  3
BTDETID
360
1000007A
  0
DICTIONARY
  5
1000007F
330
F4B17
100
AcDbDictionary
280
     1
  3
BTDETID
360
10000080
  0
DICTIONARY
  5
10000082
330
F4B18
100
AcDbDictionary
280
     1
  3
BTDETID
360
10000083
  0
DICTIONARY
  5
10000084
330
F4B19
100
AcDbDictionary
280
     1
  3
BTDETID
360
10000085
  0
DICTIONARY
  5
10000089
330
F4B1A
100
AcDbDictionary
280
     1
  3
BTDETID
360
1000008A
  0
DICTIONARY
  5
1000008F
330
F4B1B
100
AcDbDictionary
280
     1
  3
BTDETID
360
10000090
  0
DICTIONARY
  5
10000095
330
F4B1C
100
AcDbDictionary
280
     1
  3
BTDETID
360
10000096
  0
DICTIONARY
  5
1000009B
330
F4B1D
100
AcDbDictionary
280
     1
  3
BTDETID
360
1000009C
  0
DICTIONARY
  5
100000A1
330
F4B1E
100
AcDbDictionary
280
     1
  3
BTDETID
360
100000A2
  0
DICTIONARY
  5
100000A7
330
F4B1F
100
AcDbDictionary
280
     1
  3
BTDETID
360
100000A8
  0
DICTIONARY
  5
100000AD
330
F4B20
100
AcDbDictionary
280
     1
  3
BTDETID
360
100000AE
  0
DICTIONARY
  5
100000B3
330
F4B21
100
AcDbDictionary
280
     1
  3
BTDETID
360
100000B4
  0
DICTIONARY
  5
100000B6
330
F4B22
100
AcDbDictionary
280
     1
  3
BTDETID
360
100000B7
  0
DICTIONARY
  5
100000B8
330
F4B23
100
AcDbDictionary
280
     1
  3
BTDETID
360
100000B9
  0
DICTIONARY
  5
100000BA
330
F4B24
100
AcDbDictionary
280
     1
  3
BTDETID
360
100000BB
  0
DICTIONARY
  5
100000BC
330
F4B25
100
AcDbDictionary
280
     1
  3
BTDETID
360
100000BD
  0
DICTIONARY
  5
100000BE
330
F4B26
100
AcDbDictionary
280
     1
  3
BTDETID
360
100000BF
  0
DICTIONARY
  5
100000C0
330
F4B27
100
AcDbDictionary
280
     1
  3
BTDETID
360
100000C1
  0
DICTIONARY
  5
100000C5
330
F4B28
100
AcDbDictionary
280
     1
  3
BTDETID
360
100000C6
  0
DICTIONARY
  5
100000CB
330
F4B29
100
AcDbDictionary
280
     1
  3
BTDETID
360
100000CC
  0
DICTIONARY
  5
100000D1
330
F4B2A
100
AcDbDictionary
280
     1
  3
BTDETID
360
100000D2
  0
DICTIONARY
  5
100000D4
330
F4B2B
100
AcDbDictionary
280
     1
  3
BTDETID
360
100000D5
  0
DICTIONARY
  5
100000D9
330
F4B2C
100
AcDbDictionary
280
     1
  3
BTDETID
360
100000DA
  0
DICTIONARY
  5
100000DF
330
F4B2D
100
AcDbDictionary
280
     1
  3
BTDETID
360
100000E0
  0
DICTIONARY
  5
100000E5
330
F4B2E
100
AcDbDictionary
280
     1
  3
BTDETID
360
100000E6
  0
DICTIONARY
  5
100000EB
330
F4B2F
100
AcDbDictionary
280
     1
  3
BTDETID
360
100000EC
  0
DICTIONARY
  5
100000F1
330
F4B30
100
AcDbDictionary
280
     1
  3
BTDETID
360
100000F2
  0
DICTIONARY
  5
100000F4
330
F4B31
100
AcDbDictionary
280
     1
  3
BTDETID
360
100000F5
  0
DICTIONARY
  5
100000F6
330
F4B32
100
AcDbDictionary
280
     1
  3
BTCYLORGN
360
100000F9
  3
BTCYLRADIUS
360
100000FA
  3
BTDETID
360
100000F7
  3
BTISCYL
360
100000F8
  0
DICTIONARY
  5
100000FE
330
F4B33
100
AcDbDictionary
280
     1
  3
BTDETID
360
100000FF
  0
DICTIONARY
  5
10000104
330
F4B34
100
AcDbDictionary
280
     1
  3
BTDETID
360
10000105
  0
DICTIONARY
  5
10000107
330
F4B35
100
AcDbDictionary
280
     1
  3
BTDETID
360
10000108
  0
DICTIONARY
  5
10000109
330
F4B36
100
AcDbDictionary
280
     1
  3
BTCYLORGN
360
1000010C
  3
BTCYLRADIUS
360
1000010D
  3
BTDETID
360
1000010A
  3
BTISCYL
360
1000010B
  0
DICTIONARY
  5
10000111
330
F4B37
100
AcDbDictionary
280
     1
  3
BTDETID
360
10000112
  0
DICTIONARY
  5
10000117
330
F4B38
100
AcDbDictionary
280
     1
  3
BTDETID
360
10000118
  0
DICTIONARY
  5
1000011D
330
F4B39
100
AcDbDictionary
280
     1
  3
BTDETID
360
1000011E
  0
DICTIONARY
  5
10000123
330
F4B3A
100
AcDbDictionary
280
     1
  3
BTDETID
360
10000124
  0
DICTIONARY
  5
10000126
330
F4B3B
100
AcDbDictionary
280
     1
  3
BTDETID
360
10000127
  0
DICTIONARY
  5
1000012B
330
F4B3C
100
AcDbDictionary
280
     1
  3
BTDETID
360
1000012C
  0
DICTIONARY
  5
10000131
330
F4B3D
100
AcDbDictionary
280
     1
  3
BTDETID
360
10000132
  0
DICTIONARY
  5
10000137
330
F4B3E
100
AcDbDictionary
280
     1
  3
BTDETID
360
10000138
  0
DICTIONARY
  5
1000013A
330
F4B3F
100
AcDbDictionary
280
     1
  3
BTDETID
360
1000013B
  0
DICTIONARY
  5
1000013C
330
F4B40
100
AcDbDictionary
280
     1
  3
BTCYLORGN
360
1000013F
  3
BTCYLRADIUS
360
10000140
  3
BTDETID
360
1000013D
  3
BTISCYL
360
1000013E
  0
DICTIONARY
  5
10000144
330
F4B41
100
AcDbDictionary
280
     1
  3
BTDETID
360
10000145
  0
DICTIONARY
  5
1000014A
330
F4B42
100
AcDbDictionary
280
     1
  3
BTDETID
360
1000014B
  0
DICTIONARY
  5
10000150
330
F4B43
100
AcDbDictionary
280
     1
  3
BTDETID
360
10000151
  0
DICTIONARY
  5
10000156
330
F4B44
100
AcDbDictionary
280
     1
  3
BTDETID
360
10000157
  0
DICTIONARY
  5
1000015C
330
F4B45
100
AcDbDictionary
280
     1
  3
BTDETID
360
1000015D
  0
DICTIONARY
  5
1000015F
330
F4B46
100
AcDbDictionary
280
     1
  3
BTDETID
360
10000160
  0
DICTIONARY
  5
10000161
330
F4B47
100
AcDbDictionary
280
     1
  3
BTCYLORGN
360
10000164
  3
BTCYLRADIUS
360
10000165
  3
BTDETID
360
10000162
  3
BTISCYL
360
10000163
  0
DICTIONARY
  5
10000166
330
F4B48
100
AcDbDictionary
280
     1
  3
BTCYLORGN
360
10000169
  3
BTCYLRADIUS
360
1000016A
  3
BTDETID
360
10000167
  3
BTISCYL
360
10000168
  0
DICTIONARY
  5
1000016B
330
F4B49
100
AcDbDictionary
280
     1
  3
BTCYLORGN
360
1000016E
  3
BTCYLRADIUS
360
1000016F
  3
BTDETID
360
1000016C
  3
BTISCYL
360
1000016D
  0
DICTIONARY
  5
10000173
330
F4B4A
100
AcDbDictionary
280
     1
  3
BTDETID
360
10000174
  0
DICTIONARY
  5
10000179
330
F4B4B
100
AcDbDictionary
280
     1
  3
BTDETID
360
1000017A
  0
DICTIONARY
  5
1000017F
330
F4B4C
100
AcDbDictionary
280
     1
  3
BTDETID
360
10000180
  0
DICTIONARY
  5
10000185
330
F4B4D
100
AcDbDictionary
280
     1
  3
BTDETID
360
10000186
  0
DICTIONARY
  5
10000188
330
F4B4E
100
AcDbDictionary
280
     1
  3
BTDETID
360
10000189
  0
DICTIONARY
  5
1000018A
330
F4B4F
100
AcDbDictionary
280
     1
  3
BTCYLORGN
360
1000018D
  3
BTCYLRADIUS
360
1000018E
  3
BTDETID
360
1000018B
  3
BTISCYL
360
1000018C
  0
DICTIONARY
  5
1000018F
330
F4B50
100
AcDbDictionary
280
     1
  3
BTCYLORGN
360
10000192
  3
BTCYLRADIUS
360
10000193
  3
BTDETID
360
10000190
  3
BTISCYL
360
10000191
  0
DICTIONARY
  5
10000194
330
F4B51
100
AcDbDictionary
280
     1
  3
BTCYLORGN
360
10000197
  3
BTCYLRADIUS
360
10000198
  3
BTDETID
360
10000195
  3
BTISCYL
360
10000196
  0
DICTIONARY
  5
10000199
330
F4B52
100
AcDbDictionary
280
     1
  3
BTCYLORGN
360
1000019C
  3
BTCYLRADIUS
360
1000019D
  3
BTDETID
360
1000019A
  3
BTISCYL
360
1000019B
  0
DICTIONARY
  5
1000019E
330
F4B53
100
AcDbDictionary
280
     1
  3
BTCYLORGN
360
100001A1
  3
BTCYLRADIUS
360
100001A2
  3
BTDETID
360
1000019F
  3
BTISCYL
360
100001A0
  0
DICTIONARY
  5
100001A6
330
F4B54
100
AcDbDictionary
280
     1
  3
BTDETID
360
100001A7
  0
DICTIONARY
  5
100001AC
330
F4B55
100
AcDbDictionary
280
     1
  3
BTDETID
360
100001AD
  0
DICTIONARY
  5
100001B2
330
F4B56
100
AcDbDictionary
280
     1
  3
BTDETID
360
100001B3
  0
DICTIONARY
  5
100001B8
330
F4B57
100
AcDbDictionary
280
     1
  3
BTDETID
360
100001B9
  0
DICTIONARY
  5
100001BB
330
F4B58
100
AcDbDictionary
280
     1
  3
BTDETID
360
100001BC
  0
DICTIONARY
  5
100001C0
330
F4B59
100
AcDbDictionary
280
     1
  3
BTDETID
360
100001C1
  0
DICTIONARY
  5
100001C3
330
F4B5A
100
AcDbDictionary
280
     1
  3
BTDETID
360
100001C4
  0
DICTIONARY
  5
100001C8
330
F4B5B
100
AcDbDictionary
280
     1
  3
BTDETID
360
100001C9
  0
DICTIONARY
  5
100001CB
330
F4B5C
100
AcDbDictionary
280
     1
  3
BTDETID
360
100001CC
  0
DICTIONARY
  5
100001CD
330
F4B5D
100
AcDbDictionary
280
     1
  3
BTDETID
360
100001CE
  0
DICTIONARY
  5
100001CF
330
F4B5E
100
AcDbDictionary
280
     1
  3
BTDETID
360
100001D0
  0
DICTIONARY
  5
100001D1
330
F4B5F
100
AcDbDictionary
280
     1
  3
BTDETID
360
100001D2
  0
DICTIONARY
  5
100001D3
330
F4B60
100
AcDbDictionary
280
     1
  3
BTDETID
360
100001D4
  0
DICTIONARY
  5
100001D5
330
F4B61
100
AcDbDictionary
280
     1
  3
BTDETID
360
100001D6
  0
DICTIONARY
  5
100001DA
330
F4B62
100
AcDbDictionary
280
     1
  3
BTDETID
360
100001DB
  0
DICTIONARY
  5
100001E0
330
F4B63
100
AcDbDictionary
280
     1
  3
BTDETID
360
100001E1
  0
DICTIONARY
  5
100001E6
330
F4B64
100
AcDbDictionary
280
     1
  3
BTDETID
360
100001E7
  0
DICTIONARY
  5
100001EC
330
F4B65
100
AcDbDictionary
280
     1
  3
BTDETID
360
100001ED
  0
DICTIONARY
  5
100001F2
330
F4B66
100
AcDbDictionary
280
     1
  3
BTDETID
360
100001F3
  0
DICTIONARY
  5
100001F8
330
F4B67
100
AcDbDictionary
280
     1
  3
BTDETID
360
100001F9
  0
DICTIONARY
  5
100001FE
330
F4B68
100
AcDbDictionary
280
     1
  3
BTDETID
360
100001FF
  0
DICTIONARY
  5
10000204
330
F4B69
100
AcDbDictionary
280
     1
  3
BTDETID
360
10000205
  0
DICTIONARY
  5
1000020A
330
F4B6A
100
AcDbDictionary
280
     1
  3
BTDETID
360
1000020B
  0
DICTIONARY
  5
10000210
330
F4B6B
100
AcDbDictionary
280
     1
  3
BTDETID
360
10000211
  0
DICTIONARY
  5
10000216
330
F4B6C
100
AcDbDictionary
280
     1
  3
BTDETID
360
10000217
  0
DICTIONARY
  5
10000219
330
F4B6D
100
AcDbDictionary
280
     1
  3
BTDETID
360
1000021A
  0
DICTIONARY
  5
1000021E
330
F4B6E
100
AcDbDictionary
280
     1
  3
BTDETID
360
1000021F
  0
DICTIONARY
  5
10000224
330
F4B6F
100
AcDbDictionary
280
     1
  3
BTDETID
360
10000225
  0
DICTIONARY
  5
1000022A
330
F4B70
100
AcDbDictionary
280
     1
  3
BTDETID
360
1000022B
  0
DICTIONARY
  5
10000230
330
F4B71
100
AcDbDictionary
280
     1
  3
BTDETID
360
10000231
  0
DICTIONARY
  5
10000236
330
F4B72
100
AcDbDictionary
280
     1
  3
BTDETID
360
10000237
  0
DICTIONARY
  5
1000023C
330
F4B73
100
AcDbDictionary
280
     1
  3
BTDETID
360
1000023D
  0
DICTIONARY
  5
1000023F
330
F4B74
100
AcDbDictionary
280
     1
  3
BTDETID
360
10000240
  0
DICTIONARY
  5
10000244
330
F4B75
100
AcDbDictionary
280
     1
  3
BTDETID
360
10000245
  0
DICTIONARY
  5
1000024A
330
F4B76
100
AcDbDictionary
280
     1
  3
BTDETID
360
1000024B
  0
DICTIONARY
  5
10000250
330
F4B77
100
AcDbDictionary
280
     1
  3
BTDETID
360
10000251
  0
DICTIONARY
  5
10000256
330
F4B78
100
AcDbDictionary
280
     1
  3
BTDETID
360
10000257
  0
DICTIONARY
  5
1000025C
330
F4B79
100
AcDbDictionary
280
     1
  3
BTDETID
360
1000025D
  0
DICTIONARY
  5
10000262
330
F4B7A
100
AcDbDictionary
280
     1
  3
BTDETID
360
10000263
  0
DICTIONARY
  5
10000268
330
F4B7B
100
AcDbDictionary
280
     1
  3
BTDETID
360
10000269
  0
DICTIONARY
  5
1000026E
330
F4B7C
100
AcDbDictionary
280
     1
  3
BTDETID
360
1000026F
  0
DICTIONARY
  5
10000274
330
F4B7D
100
AcDbDictionary
280
     1
  3
BTDETID
360
10000275
  0
DICTIONARY
  5
1000027A
330
F4B7E
100
AcDbDictionary
280
     1
  3
BTDETID
360
1000027B
  0
DICTIONARY
  5
10000280
330
F4B7F
100
AcDbDictionary
280
     1
  3
BTDETID
360
10000281
  0
DICTIONARY
  5
10000286
330
F4B80
100
AcDbDictionary
280
     1
  3
BTDETID
360
10000287
  0
DICTIONARY
  5
1000028C
330
F4B81
100
AcDbDictionary
280
     1
  3
BTDETID
360
1000028D
  0
DICTIONARY
  5
10000292
330
F4B82
100
AcDbDictionary
280
     1
  3
BTDETID
360
10000293
  0
DICTIONARY
  5
10000298
330
F4B83
100
AcDbDictionary
280
     1
  3
BTDETID
360
10000299
  0
DICTIONARY
  5
1000029E
330
F4B84
100
AcDbDictionary
280
     1
  3
BTDETID
360
1000029F
  0
DICTIONARY
  5
100002A4
330
F4B85
100
AcDbDictionary
280
     1
  3
BTDETID
360
100002A5
  0
DICTIONARY
  5
100002A7
330
F4B86
100
AcDbDictionary
280
     1
  3
BTDETID
360
100002A8
  0
DICTIONARY
  5
100002A9
330
F4B87
100
AcDbDictionary
280
     1
  3
BTCYLORGN
360
100002AC
  3
BTCYLRADIUS
360
100002AD
  3
BTDETID
360
100002AA
  3
BTISCYL
360
100002AB
  0
DICTIONARY
  5
100002AE
330
F4B88
100
AcDbDictionary
280
     1
  3
BTDETID
360
100002AF
  0
DICTIONARY
  5
100002B0
330
F4B89
100
AcDbDictionary
280
     1
  3
BTDETID
360
100002B1
  0
DICTIONARY
  5
100002B2
330
F4B8A
100
AcDbDictionary
280
     1
  3
BTDETID
360
100002B3
  0
DICTIONARY
  5
100002B4
330
F4B8B
100
AcDbDictionary
280
     1
  3
BTDETID
360
100002B5
  0
DICTIONARY
  5
100002B6
330
F4B8C
100
AcDbDictionary
280
     1
  3
BTDETID
360
100002B7
  0
DICTIONARY
  5
100002B8
330
F4B8D
100
AcDbDictionary
280
     1
  3
BTDETID
360
100002B9
  0
DICTIONARY
  5
100002BA
330
F4B8E
100
AcDbDictionary
280
     1
  3
BTCYLORGN
360
100002BD
  3
BTCYLRADIUS
360
100002BE
  3
BTDETID
360
100002BB
  3
BTISCYL
360
100002BC
  0
DICTIONARY
  5
100002BF
330
F4B8F
100
AcDbDictionary
280
     1
  3
BTCYLORGN
360
100002C2
  3
BTCYLRADIUS
360
100002C3
  3
BTDETID
360
100002C0
  3
BTISCYL
360
100002C1
  0
DICTIONARY
  5
100002C4
330
F4B90
100
AcDbDictionary
280
     1
  3
BTCYLORGN
360
100002C7
  3
BTCYLRADIUS
360
100002C8
  3
BTDETID
360
100002C5
  3
BTISCYL
360
100002C6
  0
DICTIONARY
  5
100002C9
330
F4B91
100
AcDbDictionary
280
     1
  3
BTCYLORGN
360
100002CC
  3
BTCYLRADIUS
360
100002CD
  3
BTDETID
360
100002CA
  3
BTISCYL
360
100002CB
  0
DICTIONARY
  5
100002CE
330
F4B92
100
AcDbDictionary
280
     1
  3
BTCYLORGN
360
100002D1
  3
BTCYLRADIUS
360
100002D2
  3
BTDETID
360
100002CF
  3
BTISCYL
360
100002D0
  0
DICTIONARY
  5
100002D3
330
F4B93
100
AcDbDictionary
280
     1
  3
BTDETID
360
100002D4
  0
DICTIONARY
  5
100002D5
330
F4B94
100
AcDbDictionary
280
     1
  3
BTDETID
360
100002D6
  0
DICTIONARY
  5
100002D7
330
F4B95
100
AcDbDictionary
280
     1
  3
BTCYLORGN
360
100002DA
  3
BTCYLRADIUS
360
100002DB
  3
BTDETID
360
100002D8
  3
BTISCYL
360
100002D9
  0
DICTIONARY
  5
100002DC
330
F4B96
100
AcDbDictionary
280
     1
  3
BTCYLORGN
360
100002DF
  3
BTCYLRADIUS
360
100002E0
  3
BTDETID
360
100002DD
  3
BTISCYL
360
100002DE
  0
DICTIONARY
  5
100002E1
330
F4B97
100
AcDbDictionary
280
     1
  3
BTCYLORGN
360
100002E4
  3
BTCYLRADIUS
360
100002E5
  3
BTDETID
360
100002E2
  3
BTISCYL
360
100002E3
  0
DICTIONARY
  5
100002E9
330
F4B98
100
AcDbDictionary
280
     1
  3
BTDETID
360
100002EA
  0
DICTIONARY
  5
100002EC
330
F4B99
100
AcDbDictionary
280
     1
  3
BTDETID
360
100002ED
  0
DICTIONARY
  5
100002F1
330
F4B9A
100
AcDbDictionary
280
     1
  3
BTDETID
360
100002F2
  0
DICTIONARY
  5
100002F4
330
F4B9B
100
AcDbDictionary
280
     1
  3
BTDETID
360
100002F5
  0
DICTIONARY
  5
100002F6
330
F4B9C
100
AcDbDictionary
280
     1
  3
BTCYLORGN
360
100002F9
  3
BTCYLRADIUS
360
100002FA
  3
BTDETID
360
100002F7
  3
BTISCYL
360
100002F8
  0
DICTIONARY
  5
100002FB
330
F4B9D
100
AcDbDictionary
280
     1
  3
BTCYLORGN
360
100002FE
  3
BTCYLRADIUS
360
100002FF
  3
BTDETID
360
100002FC
  3
BTISCYL
360
100002FD
  0
DICTIONARY
  5
10000300
330
F4B9E
100
AcDbDictionary
280
     1
  3
BTCYLORGN
360
10000303
  3
BTCYLRADIUS
360
10000304
  3
BTDETID
360
10000301
  3
BTISCYL
360
10000302
  0
DICTIONARY
  5
10000308
330
F4B9F
100
AcDbDictionary
280
     1
  3
BTDETID
360
10000309
  0
DICTIONARY
  5
1000030B
330
F4BA0
100
AcDbDictionary
280
     1
  3
BTDETID
360
1000030C
  0
DICTIONARY
  5
10000310
330
F4BA1
100
AcDbDictionary
280
     1
  3
BTDETID
360
10000311
  0
DICTIONARY
  5
10000316
330
F4BA2
100
AcDbDictionary
280
     1
  3
BTDETID
360
10000317
  0
DICTIONARY
  5
10000319
330
F4BA3
100
AcDbDictionary
280
     1
  3
BTDETID
360
1000031A
  0
DICTIONARY
  5
1000031E
330
F4BA4
100
AcDbDictionary
280
     1
  3
BTDETID
360
1000031F
  0
DICTIONARY
  5
10000321
330
F4BA5
100
AcDbDictionary
280
     1
  3
BTDETID
360
10000322
  0
DICTIONARY
  5
10000323
330
F4BA6
100
AcDbDictionary
280
     1
  3
BTDETID
360
10000324
  0
DICTIONARY
  5
10000328
330
F4BA7
100
AcDbDictionary
280
     1
  3
BTDETID
360
10000329
  0
DICTIONARY
  5
1000032B
330
F4BA8
100
AcDbDictionary
280
     1
  3
BTDETID
360
1000032C
  0
DICTIONARY
  5
10000330
330
F4BA9
100
AcDbDictionary
280
     1
  3
BTDETID
360
10000331
  0
DICTIONARY
  5
10000333
330
F4BAA
100
AcDbDictionary
280
     1
  3
BTDETID
360
10000334
  0
DICTIONARY
  5
10000335
330
F4BAB
100
AcDbDictionary
280
     1
  3
BTDETID
360
10000336
  0
DICTIONARY
  5
1000033A
330
F4BAC
100
AcDbDictionary
280
     1
  3
BTDETID
360
1000033B
  0
DICTIONARY
  5
1000033D
330
F4BAD
100
AcDbDictionary
280
     1
  3
BTDETID
360
1000033E
  0
DICTIONARY
  5
1000033F
330
F4BAE
100
AcDbDictionary
280
     1
  3
BTCYLORGN
360
10000342
  3
BTCYLRADIUS
360
10000343
  3
BTDETID
360
10000340
  3
BTISCYL
360
10000341
  0
DICTIONARY
  5
10000344
330
F4BAF
100
AcDbDictionary
280
     1
  3
BTCYLORGN
360
10000347
  3
BTCYLRADIUS
360
10000348
  3
BTDETID
360
10000345
  3
BTISCYL
360
10000346
  0
DICTIONARY
  5
10000349
330
F4BB0
100
AcDbDictionary
280
     1
  3
BTCYLORGN
360
1000034C
  3
BTCYLRADIUS
360
1000034D
  3
BTDETID
360
1000034A
  3
BTISCYL
360
1000034B
  0
DICTIONARY
  5
10000351
330
F4BB1
100
AcDbDictionary
280
     1
  3
BTDETID
360
10000352
  0
DICTIONARY
  5
10000354
330
F4BB2
100
AcDbDictionary
280
     1
  3
BTDETID
360
10000355
  0
DICTIONARY
  5
10000359
330
F4BB3
100
AcDbDictionary
280
     1
  3
BTDETID
360
1000035A
  0
DICTIONARY
  5
1000035C
330
F4BB4
100
AcDbDictionary
280
     1
  3
BTDETID
360
1000035D
  0
DICTIONARY
  5
1000035E
330
F4BB5
100
AcDbDictionary
280
     1
  3
BTDETID
360
1000035F
  0
DICTIONARY
  5
10000363
330
F4BB6
100
AcDbDictionary
280
     1
  3
BTDETID
360
10000364
  0
DICTIONARY
  5
10000366
330
F4BB7
100
AcDbDictionary
280
     1
  3
BTDETID
360
10000367
  0
DICTIONARY
  5
1000036B
330
F4BB8
100
AcDbDictionary
280
     1
  3
BTDETID
360
1000036C
  0
DICTIONARY
  5
1000036E
330
F4BB9
100
AcDbDictionary
280
     1
  3
BTCYLORGN
360
10000371
  3
BTCYLRADIUS
360
10000372
  3
BTDETID
360
1000036F
  3
BTISCYL
360
10000370
  0
DICTIONARY
  5
10000373
330
F4BBA
100
AcDbDictionary
280
     1
  3
BTDETID
360
10000374
  0
DICTIONARY
  5
10000375
330
F4BBB
100
AcDbDictionary
280
     1
  3
BTCYLORGN
360
10000378
  3
BTCYLRADIUS
360
10000379
  3
BTDETID
360
10000376
  3
BTISCYL
360
10000377
  0
DICTIONARY
  5
1000037A
330
F4BBC
100
AcDbDictionary
280
     1
  3
BTDETID
360
1000037B
  0
DICTIONARY
  5
1000037F
330
F4BBD
100
AcDbDictionary
280
     1
  3
BTDETID
360
10000380
  0
DICTIONARY
  5
10000382
330
F4BBE
100
AcDbDictionary
280
     1
  3
BTDETID
360
10000383
  0
DICTIONARY
  5
10000384
330
F4BBF
100
AcDbDictionary
280
     1
  3
BTDETID
360
10000385
  0
DICTIONARY
  5
10000389
330
F4BC0
100
AcDbDictionary
280
     1
  3
BTDETID
360
1000038A
  0
DICTIONARY
  5
1000038C
330
F4BC1
100
AcDbDictionary
280
     1
  3
BTCYLORGN
360
1000038F
  3
BTCYLRADIUS
360
10000390
  3
BTDETID
360
1000038D
  3
BTISCYL
360
1000038E
  0
DICTIONARY
  5
10000391
330
F4BC2
100
AcDbDictionary
280
     1
  3
BTDETID
360
10000392
  0
DICTIONARY
  5
10000396
330
F4BC3
100
AcDbDictionary
280
     1
  3
BTDETID
360
10000397
  0
DICTIONARY
  5
10000399
330
F4BC4
100
AcDbDictionary
280
     1
  3
BTCYLORGN
360
1000039C
  3
BTCYLRADIUS
360
1000039D
  3
BTDETID
360
1000039A
  3
BTISCYL
360
1000039B
  0
DICTIONARY
  5
1000039E
330
F4BC5
100
AcDbDictionary
280
     1
  3
BTDETID
360
1000039F
  0
DICTIONARY
  5
100003A3
330
F4BC6
100
AcDbDictionary
280
     1
  3
BTDETID
360
100003A4
  0
DICTIONARY
  5
100003A6
330
F4BC7
100
AcDbDictionary
280
     1
  3
BTDETID
360
100003A7
  0
DICTIONARY
  5
100003A8
330
F4BC8
100
AcDbDictionary
280
     1
  3
BTDETID
360
100003A9
  0
DICTIONARY
  5
100003AA
330
F4BC9
100
AcDbDictionary
280
     1
  3
BTCYLORGN
360
100003AD
  3
BTCYLRADIUS
360
100003AE
  3
BTDETID
360
100003AB
  3
BTISCYL
360
100003AC
  0
DICTIONARY
  5
100003B2
330
F4BCA
100
AcDbDictionary
280
     1
  3
BTDETID
360
100003B3
  0
DICTIONARY
  5
100003B5
330
F4BCB
100
AcDbDictionary
280
     1
  3
BTCYLORGN
360
100003B8
  3
BTCYLRADIUS
360
100003B9
  3
BTDETID
360
100003B6
  3
BTISCYL
360
100003B7
  0
DICTIONARY
  5
100003BA
330
F4BCC
100
AcDbDictionary
280
     1
  3
BTDETID
360
100003BB
  0
DICTIONARY
  5
100003BC
330
F4BCD
100
AcDbDictionary
280
     1
  3
BTCYLORGN
360
100003BF
  3
BTCYLRADIUS
360
100003C0
  3
BTDETID
360
100003BD
  3
BTISCYL
360
100003BE
  0
DICTIONARY
  5
100003C4
330
F4BCE
100
AcDbDictionary
280
     1
  3
BTDETID
360
100003C5
  0
DICTIONARY
  5
100003C7
330
F4BCF
100
AcDbDictionary
280
     1
  3
BTDETID
360
100003C8
  0
DICTIONARY
  5
100003C9
330
F4BD0
100
AcDbDictionary
280
     1
  3
BTDETID
360
100003CA
  0
DICTIONARY
  5
100003CE
330
F4BD1
100
AcDbDictionary
280
     1
  3
BTDETID
360
100003CF
  0
DICTIONARY
  5
100003D4
330
F4BD2
100
AcDbDictionary
280
     1
  3
BTDETID
360
100003D5
  0
DICTIONARY
  5
100003D7
330
F4BD3
100
AcDbDictionary
280
     1
  3
BTDETID
360
100003D8
  0
DICTIONARY
  5
100003D9
330
F4BD4
100
AcDbDictionary
280
     1
  3
BTDETID
360
100003DA
  0
DICTIONARY
  5
100003DB
330
F4BD5
100
AcDbDictionary
280
     1
  3
BTCYLORGN
360
100003DE
  3
BTCYLRADIUS
360
100003DF
  3
BTDETID
360
100003DC
  3
BTISCYL
360
100003DD
  0
DICTIONARY
  5
100003E0
330
F4BD6
100
AcDbDictionary
280
     1
  3
BTCYLORGN
360
100003E3
  3
BTCYLRADIUS
360
100003E4
  3
BTDETID
360
100003E1
  3
BTISCYL
360
100003E2
  0
DICTIONARY
  5
100003E5
330
F4BD7
100
AcDbDictionary
280
     1
  3
BTDETID
360
100003E6
  0
DICTIONARY
  5
100003E7
330
F4BD8
100
AcDbDictionary
280
     1
  3
BTCYLORGN
360
100003EA
  3
BTCYLRADIUS
360
100003EB
  3
BTDETID
360
100003E8
  3
BTISCYL
360
100003E9
  0
DICTIONARY
  5
100003EC
330
F4BD9
100
AcDbDictionary
280
     1
  3
BTCYLORGN
360
100003EF
  3
BTCYLRADIUS
360
100003F0
  3
BTDETID
360
100003ED
  3
BTISCYL
360
100003EE
  0
DICTIONARY
  5
100003F1
330
F4BDA
100
AcDbDictionary
280
     1
  3
BTCYLORGN
360
100003F4
  3
BTCYLRADIUS
360
100003F5
  3
BTDETID
360
100003F2
  3
BTISCYL
360
100003F3
  0
DICTIONARY
  5
100003F6
330
F4BDB
100
AcDbDictionary
280
     1
  3
BTCYLORGN
360
100003F9
  3
BTCYLRADIUS
360
100003FA
  3
BTDETID
360
100003F7
  3
BTISCYL
360
100003F8
  0
DICTIONARY
  5
100003FB
330
F4BDC
100
AcDbDictionary
280
     1
  3
BTCYLORGN
360
100003FE
  3
BTCYLRADIUS
360
100003FF
  3
BTDETID
360
100003FC
  3
BTISCYL
360
100003FD
  0
DICTIONARY
  5
10000400
330
F4BDD
100
AcDbDictionary
280
     1
  3
BTCYLORGN
360
10000403
  3
BTCYLRADIUS
360
10000404
  3
BTDETID
360
10000401
  3
BTISCYL
360
10000402
  0
DICTIONARY
  5
10000405
330
F4BDE
100
AcDbDictionary
280
     1
  3
BTCYLORGN
360
10000408
  3
BTCYLRADIUS
360
10000409
  3
BTDETID
360
10000406
  3
BTISCYL
360
10000407
  0
DICTIONARY
  5
1000040A
330
F4BDF
100
AcDbDictionary
280
     1
  3
BTCYLORGN
360
1000040D
  3
BTCYLRADIUS
360
1000040E
  3
BTDETID
360
1000040B
  3
BTISCYL
360
1000040C
  0
DICTIONARY
  5
1000040F
330
F4BE0
100
AcDbDictionary
280
     1
  3
BTCYLORGN
360
10000412
  3
BTCYLRADIUS
360
10000413
  3
BTDETID
360
10000410
  3
BTISCYL
360
10000411
  0
DICTIONARY
  5
10000414
330
F4BE1
100
AcDbDictionary
280
     1
  3
BTCYLORGN
360
10000417
  3
BTCYLRADIUS
360
10000418
  3
BTDETID
360
10000415
  3
BTISCYL
360
10000416
  0
DICTIONARY
  5
1000041C
330
F4BE2
100
AcDbDictionary
280
     1
  3
BTDETID
360
1000041D
  0
DICTIONARY
  5
10000422
330
F4BE3
100
AcDbDictionary
280
     1
  3
BTDETID
360
10000423
  0
DICTIONARY
  5
10000428
330
F4BE4
100
AcDbDictionary
280
     1
  3
BTDETID
360
10000429
  0
DICTIONARY
  5
1000042E
330
F4BE5
100
AcDbDictionary
280
     1
  3
BTDETID
360
1000042F
  0
DICTIONARY
  5
10000431
330
F4BE6
100
AcDbDictionary
280
     1
  3
BTDETID
360
10000432
  0
DICTIONARY
  5
10000433
330
F4BE7
100
AcDbDictionary
280
     1
  3
BTDETID
360
10000434
  0
DICTIONARY
  5
10000438
330
F4BE8
100
AcDbDictionary
280
     1
  3
BTDETID
360
10000439
  0
DICTIONARY
  5
1000043E
330
F4BE9
100
AcDbDictionary
280
     1
  3
BTDETID
360
1000043F
  0
DICTIONARY
  5
10000444
330
F4BEA
100
AcDbDictionary
280
     1
  3
BTDETID
360
10000445
  0
DICTIONARY
  5
1000044A
330
F4BEB
100
AcDbDictionary
280
     1
  3
BTDETID
360
1000044B
  0
DICTIONARY
  5
10000450
330
F4BEC
100
AcDbDictionary
280
     1
  3
BTDETID
360
10000451
  0
DICTIONARY
  5
10000456
330
F4BED
100
AcDbDictionary
280
     1
  3
BTDETID
360
10000457
  0
DICTIONARY
  5
10000459
330
F4BEE
100
AcDbDictionary
280
     1
  3
BTDETID
360
1000045A
  0
DICTIONARY
  5
1000045B
330
F4BEF
100
AcDbDictionary
280
     1
  3
BTDETID
360
1000045C
  0
DICTIONARY
  5
10000460
330
F4BF0
100
AcDbDictionary
280
     1
  3
BTDETID
360
10000461
  0
DICTIONARY
  5
10000463
330
F4BF1
100
AcDbDictionary
280
     1
  3
BTDETID
360
10000464
  0
DICTIONARY
  5
10000465
330
F4BF2
100
AcDbDictionary
280
     1
  3
BTDETID
360
10000466
  0
DICTIONARY
  5
1000046A
330
F4BF3
100
AcDbDictionary
280
     1
  3
BTDETID
360
1000046B
  0
DICTIONARY
  5
10000470
330
F4BF4
100
AcDbDictionary
280
     1
  3
BTDETID
360
10000471
  0
DICTIONARY
  5
10000476
330
F4BF5
100
AcDbDictionary
280
     1
  3
BTDETID
360
10000477
  0
DICTIONARY
  5
1000047C
330
F4BF6
100
AcDbDictionary
280
     1
  3
BTDETID
360
1000047D
  0
DICTIONARY
  5
10000482
330
F4BF7
100
AcDbDictionary
280
     1
  3
BTDETID
360
10000483
  0
DICTIONARY
  5
10000488
330
F4BF8
100
AcDbDictionary
280
     1
  3
BTDETID
360
10000489
  0
DICTIONARY
  5
1000048E
330
F4BF9
100
AcDbDictionary
280
     1
  3
BTDETID
360
1000048F
  0
DICTIONARY
  5
10000494
330
F4BFA
100
AcDbDictionary
280
     1
  3
BTDETID
360
10000495
  0
DICTIONARY
  5
10000497
330
F4BFB
100
AcDbDictionary
280
     1
  3
BTDETID
360
10000498
  0
DICTIONARY
  5
1000049C
330
F4BFC
100
AcDbDictionary
280
     1
  3
BTDETID
360
1000049D
  0
DICTIONARY
  5
100004A2
330
F4BFD
100
AcDbDictionary
280
     1
  3
BTDETID
360
100004A3
  0
DICTIONARY
  5
100004A8
330
F4BFE
100
AcDbDictionary
280
     1
  3
BTDETID
360
100004A9
  0
DICTIONARY
  5
100004AE
330
F4BFF
100
AcDbDictionary
280
     1
  3
BTDETID
360
100004AF
  0
DICTIONARY
  5
100004B1
330
F4C00
100
AcDbDictionary
280
     1
  3
BTDETID
360
100004B2
  0
DICTIONARY
  5
100004B3
330
F4C01
100
AcDbDictionary
280
     1
  3
BTDETID
360
100004B4
  0
DICTIONARY
  5
100004B5
330
F4C02
100
AcDbDictionary
280
     1
  3
BTDETID
360
100004B6
  0
DICTIONARY
  5
100004B7
330
F4C03
100
AcDbDictionary
280
     1
  3
BTDETID
360
100004B8
  0
DICTIONARY
  5
100004B9
330
F4C04
100
AcDbDictionary
280
     1
  3
BTDETID
360
100004BA
  0
DICTIONARY
  5
100004BB
330
F4C05
100
AcDbDictionary
280
     1
  3
BTDETID
360
100004BC
  0
DICTIONARY
  5
100004C0
330
F4C06
100
AcDbDictionary
280
     1
  3
BTDETID
360
100004C1
  0
DICTIONARY
  5
100004C6
330
F4C07
100
AcDbDictionary
280
     1
  3
BTDETID
360
100004C7
  0
DICTIONARY
  5
100004CC
330
F4C08
100
AcDbDictionary
280
     1
  3
BTDETID
360
100004CD
  0
DICTIONARY
  5
100004D2
330
F4C09
100
AcDbDictionary
280
     1
  3
BTDETID
360
100004D3
  0
DICTIONARY
  5
100004D5
330
F4C0A
100
AcDbDictionary
280
     1
  3
BTDETID
360
100004D6
  0
DICTIONARY
  5
100004D7
330
F4C0B
100
AcDbDictionary
280
     1
  3
BTDETID
360
100004D8
  0
DICTIONARY
  5
100004DC
330
F4C0C
100
AcDbDictionary
280
     1
  3
BTDETID
360
100004DD
  0
DICTIONARY
  5
100004E2
330
F4C0D
100
AcDbDictionary
280
     1
  3
BTDETID
360
100004E3
  0
DICTIONARY
  5
100004E8
330
F4C0E
100
AcDbDictionary
280
     1
  3
BTDETID
360
100004E9
  0
DICTIONARY
  5
100004EE
330
F4C0F
100
AcDbDictionary
280
     1
  3
BTDETID
360
100004EF
  0
DICTIONARY
  5
100004F4
330
F4C10
100
AcDbDictionary
280
     1
  3
BTDETID
360
100004F5
  0
DICTIONARY
  5
100004FA
330
F4C11
100
AcDbDictionary
280
     1
  3
BTDETID
360
100004FB
  0
DICTIONARY
  5
100004FD
330
F4C12
100
AcDbDictionary
280
     1
  3
BTDETID
360
100004FE
  0
DICTIONARY
  5
10000502
330
F4C13
100
AcDbDictionary
280
     1
  3
BTDETID
360
10000503
  0
DICTIONARY
  5
10000508
330
F4C14
100
AcDbDictionary
280
     1
  3
BTDETID
360
10000509
  0
DICTIONARY
  5
1000050E
330
F4C15
100
AcDbDictionary
280
     1
  3
BTDETID
360
1000050F
  0
DICTIONARY
  5
10000514
330
F4C16
100
AcDbDictionary
280
     1
  3
BTDETID
360
10000515
  0
DICTIONARY
  5
1000051A
330
F4C17
100
AcDbDictionary
280
     1
  3
BTDETID
360
1000051B
  0
DICTIONARY
  5
10000520
330
F4C18
100
AcDbDictionary
280
     1
  3
BTDETID
360
10000521
  0
DICTIONARY
  5
10000523
330
F4C19
100
AcDbDictionary
280
     1
  3
BTDETID
360
10000524
  0
DICTIONARY
  5
10000528
330
F4C1A
100
AcDbDictionary
280
     1
  3
BTDETID
360
10000529
  0
DICTIONARY
  5
1000052B
330
F4C1B
100
AcDbDictionary
280
     1
  3
BTDETID
360
1000052C
  0
DICTIONARY
  5
10000530
330
F4C1C
100
AcDbDictionary
280
     1
  3
BTDETID
360
10000531
  0
DICTIONARY
  5
10000536
330
F4C1D
100
AcDbDictionary
280
     1
  3
BTDETID
360
10000537
  0
DICTIONARY
  5
1000053C
330
F4C1E
100
AcDbDictionary
280
     1
  3
BTDETID
360
1000053D
  0
DICTIONARY
  5
10000542
330
F4C1F
100
AcDbDictionary
280
     1
  3
BTDETID
360
10000543
  0
DICTIONARY
  5
10000545
330
F4C20
100
AcDbDictionary
280
     1
  3
BTDETID
360
10000546
  0
DICTIONARY
  5
10000547
330
F4C21
100
AcDbDictionary
280
     1
  3
BTDETID
360
10000548
  0
DICTIONARY
  5
10000549
330
F4C22
100
AcDbDictionary
280
     1
  3
BTDETID
360
1000054A
  0
DICTIONARY
  5
1000054B
330
F4C23
100
AcDbDictionary
280
     1
  3
BTDETID
360
1000054C
  0
DICTIONARY
  5
1000054D
330
F4C24
100
AcDbDictionary
280
     1
  3
BTDETID
360
1000054E
  0
DICTIONARY
  5
10000552
330
F4C25
100
AcDbDictionary
280
     1
  3
BTDETID
360
10000553
  0
DICTIONARY
  5
10000555
330
F4C26
100
AcDbDictionary
280
     1
  3
BTDETID
360
10000556
  0
DICTIONARY
  5
1000055A
330
F4C27
100
AcDbDictionary
280
     1
  3
BTDETID
360
1000055B
  0
DICTIONARY
  5
10000560
330
F4C28
100
AcDbDictionary
280
     1
  3
BTDETID
360
10000561
  0
DICTIONARY
  5
10000566
330
F4C29
100
AcDbDictionary
280
     1
  3
BTDETID
360
10000567
  0
DICTIONARY
  5
1000056C
330
F4C2A
100
AcDbDictionary
280
     1
  3
BTDETID
360
1000056D
  0
DICTIONARY
  5
1000056F
330
F4C2B
100
AcDbDictionary
280
     1
  3
BTDETID
360
10000570
  0
DICTIONARY
  5
10000571
330
F4C2C
100
AcDbDictionary
280
     1
  3
BTDETID
360
10000572
  0
DICTIONARY
  5
10000576
330
F4C2D
100
AcDbDictionary
280
     1
  3
BTDETID
360
10000577
  0
DICTIONARY
  5
1000057C
330
F4C2E
100
AcDbDictionary
280
     1
  3
BTDETID
360
1000057D
  0
DICTIONARY
  5
10000582
330
F4C2F
100
AcDbDictionary
280
     1
  3
BTDETID
360
10000583
  0
DICTIONARY
  5
10000585
330
F4C30
100
AcDbDictionary
280
     1
  3
BTDETID
360
10000586
  0
DICTIONARY
  5
1000058A
330
F4C31
100
AcDbDictionary
280
     1
  3
BTDETID
360
1000058B
  0
DICTIONARY
  5
10000590
330
F4C32
100
AcDbDictionary
280
     1
  3
BTDETID
360
10000591
  0
DICTIONARY
  5
10000596
330
F4C33
100
AcDbDictionary
280
     1
  3
BTDETID
360
10000597
  0
DICTIONARY
  5
1000059C
330
F4C34
100
AcDbDictionary
280
     1
  3
BTDETID
360
1000059D
  0
DICTIONARY
  5
100005A2
330
F4C35
100
AcDbDictionary
280
     1
  3
BTDETID
360
100005A3
  0
DICTIONARY
  5
100005A8
330
F4C36
100
AcDbDictionary
280
     1
  3
BTDETID
360
100005A9
  0
DICTIONARY
  5
100005AE
330
F4C37
100
AcDbDictionary
280
     1
  3
BTDETID
360
100005AF
  0
DICTIONARY
  5
D
102
{ACAD_REACTORS
330
C
102
}
330
C
100
AcDbDictionary
  0
DICTIONARY
  5
1A
102
{ACAD_REACTORS
330
C
102
}
330
C
100
AcDbDictionary
  0
DICTIONARY
  5
43
102
{ACAD_REACTORS
330
C
102
}
330
C
100
AcDbDictionary
  3
BYBLOCK
350
45
  3
BYLAYER
350
44
  3
GLOBAL
350
46
  0
DICTIONARY
  5
6B
102
{ACAD_REACTORS
330
C
102
}
330
C
100
AcDbDictionary
  3
STANDARD
350
6C
  0
DICTIONARY
  5
17
102
{ACAD_REACTORS
330
C
102
}
330
C
100
AcDbDictionary
  3
STANDARD
350
18
  0
DICTIONARY
  5
19
102
{ACAD_REACTORS
330
C
102
}
330
C
100
AcDbDictionary
  0
DICTIONARY
  5
47
102
{ACAD_REACTORS
330
C
102
}
330
C
100
AcDbDictionary
  3
SCALE100_1
350
10000023
  3
SCALE10_1
350
1000001D
  3
SCALE12_1
350
1000001E
  3
SCALE16_1
350
1000001F
  3
SCALE1_1
350
10000006
  3
SCALE1_10
350
1000000D
  3
SCALE1_100
350
10000016
  3
SCALE1_12
350
1000000E
  3
SCALE1_16
350
1000000F
  3
SCALE1_2
350
10000007
  3
SCALE1_20
350
10000010
  3
SCALE1_25
350
10000011
  3
SCALE1_3
350
10000008
  3
SCALE1_32
350
10000012
  3
SCALE1_4
350
10000009
  3
SCALE1_40
350
10000013
  3
SCALE1_5
350
1000000A
  3
SCALE1_50
350
10000014
  3
SCALE1_6
350
1000000B
  3
SCALE1_8
350
1000000C
  3
SCALE1_80
350
10000015
  3
SCALE20_1
350
10000020
  3
SCALE2_1
350
10000017
  3
SCALE32_1
350
10000021
  3
SCALE3_1
350
10000018
  3
SCALE4_1
350
10000019
  3
SCALE50_1
350
10000022
  3
SCALE5_1
350
1000001A
  3
SCALE6_1
350
1000001B
  3
SCALE8_1
350
1000001C
  0
DICTIONARY
  5
2A
102
{ACAD_REACTORS
330
C
102
}
330
C
100
AcDbDictionary
  3
2DWIREFRAME
350
2F
  3
BASIC
350
32
  3
BRIGHTEN
350
36
  3
COLORCHANGE
350
3A
  3
CONCEPTUAL
350
34
  3
DIM
350
35
  3
EDGECOLOROFF
350
3D
  3
FACEPATTERN
350
39
  3
FLAT
350
2B
  3
FLATWITHEDGES
350
2C
  3
GOURAUD
350
2D
  3
GOURAUDWITHEDGES
350
2E
  3
HIDDEN
350
31
  3
JITTEROFF
350
3B
  3
LINEPATTERN
350
38
  3
OVERHANGOFF
350
3C
  3
REALISTIC
350
33
  3
SHADED
350
42
  3
SHADED_WITH_EDGES
350
41
  3
SHADES_OF_GRAY
350
3E
  3
SKETCHY
350
3F
  3
THICKEN
350
37
  3
WIREFRAME
350
30
  3
X-RAY
350
40
  0
DICTIONARY
  5
100005B3
102
{ACAD_REACTORS
330
C
102
}
330
C
100
AcDbDictionary
  3
CEPSNID
350
100005BD
  3
CEPSNTYPE
350
100005BC
  3
DIMSTYLEDATA
350
100005D3
  3
FINGERPRINTGUID
350
100005BE
  3
HYPERLINKBASE
350
100005B6
  3
INSUNITS
350
100005BB
  3
LAYOUTDICT
350
100005B8
  3
LWETCUNION
350
100005BA
  3
PLOTSETDICT
350
100005B9
  3
PSVPSCALE
350
100005C0
  3
PUCSBASE
350
100005C3
  3
PUCSORGBACK
350
100005C9
  3
PUCSORGBOTTOM
350
100005C5
  3
PUCSORGFRONT
350
100005C8
  3
PUCSORGLEFT
350
100005C6
  3
PUCSORGRIGHT
350
100005C7
  3
PUCSORGTOP
350
100005C4
  3
PUCSORTHOREF
350
100005C1
  3
PUCSORTHOVIEW
350
100005C2
  3
STYLESHEET
350
100005B7
  3
TSTACKALIGN
350
100005B4
  3
TSTACKSIZE
350
100005B5
  3
UCSBASE
350
100005CC
  3
UCSORGBACK
350
100005D2
  3
UCSORGBOTTOM
350
100005CE
  3
UCSORGFRONT
350
100005D1
  3
UCSORGLEFT
350
100005CF
  3
UCSORGRIGHT
350
100005D0
  3
UCSORGTOP
350
100005CD
  3
UCSORTHOREF
350
100005CA
  3
UCSORTHOVIEW
350
100005CB
  3
VERSIONGUID
350
100005BF
  0
DICTIONARY
  5
100005D4
102
{ACAD_REACTORS
330
C
102
}
330
C
100
AcDbDictionary
  3
CANNOSCALE
350
100005DE
  3
CMLEADERSTYLE
350
100005D6
  3
CTABLESTYLE
350
100005D5
  3
DIMASSOC
350
100005D9
  3
HIDETEXT
350
100005DA
  3
MSLTSCALE
350
100005DF
  0
XRECORD
  5
100005DB
102
{ACAD_REACTORS
330
C
102
}
330
C
100
AcDbXrecord
  1
DWGPROPS COOKIE
  2

  3

  4

  6
File was created by BTDwgCreate
  7

  8

  9

300
=
301
=
302
=
303
=
304
=
305
=
306
=
307
=
308
=
309
=
 40
0.0
 41
2457962.236950949
 42
2457962.2369511
  1

 90
        0
  0
DICTIONARY
  5
10000001
102
{ACAD_REACTORS
330
C
102
}
330
C
100
AcDbDictionary
280
     1
  3
DIM_UNITS
360
10000003
  3
DWGGEN_VERSION
360
10000002
  3
FIRST_ANGLE
360
10000005
  0
XRECORD
  5
100005DD
102
{ACAD_REACTORS
330
100005DC
102
}
330
100005DC
100
AcDbXrecord
102
VTR_0.000_0.000_1.000_1.000_VISUALSTYLE
340
2F
102
VTR_0.000_0.000_1.000_1.000_GRIDDISPLAY
 70
     3
102
VTR_0.000_0.000_1.000_1.000_GRIDMAJOR
 70
     5
102
VTR_0.000_0.000_1.000_1.000_DEFAULTLIGHTING
280
     1
102
VTR_0.000_0.000_1.000_1.000_DEFAULTLIGHTINGTYPE
 70
     1
102
VTR_0.000_0.000_1.000_1.000_BRIGHTNESS
141
0.0
102
VTR_0.000_0.000_1.000_1.000_CONTRAST
142
0.0
  0
SORTENTSTABLE
  5
100005B2
102
{ACAD_REACTORS
330
100005B1
102
}
330
100005B1
100
AcDbSortentsTable
330
1F
  0
XRECORD
  5
1000004C
102
{ACAD_REACTORS
330
1000004B
102
}
330
1000004B
100
AcDbXrecord
1000
KFtT
  0
XRECORD
  5
10000052
102
{ACAD_REACTORS
330
10000051
102
}
330
10000051
100
AcDbXrecord
1000
KFpT
  0
XRECORD
  5
10000055
102
{ACAD_REACTORS
330
10000054
102
}
330
10000054
100
AcDbXrecord
1000
KFlT
  0
XRECORD
  5
1000005A
102
{ACAD_REACTORS
330
10000059
102
}
330
10000059
100
AcDbXrecord
1000
KFhT
  0
XRECORD
  5
10000060
102
{ACAD_REACTORS
330
1000005F
102
}
330
1000005F
100
AcDbXrecord
1000
KFdT
  0
XRECORD
  5
10000066
102
{ACAD_REACTORS
330
10000065
102
}
330
10000065
100
AcDbXrecord
1000
KFZT
  0
XRECORD
  5
1000006C
102
{ACAD_REACTORS
330
1000006B
102
}
330
1000006B
100
AcDbXrecord
1000
KFVT
  0
XRECORD
  5
1000006F
102
{ACAD_REACTORS
330
1000006E
102
}
330
1000006E
100
AcDbXrecord
1000
KFRT
  0
XRECORD
  5
10000074
102
{ACAD_REACTORS
330
10000073
102
}
330
10000073
100
AcDbXrecord
1000
KFNT
  0
XRECORD
  5
1000007A
102
{ACAD_REACTORS
330
10000079
102
}
330
10000079
100
AcDbXrecord
1000
KFJT
  0
XRECORD
  5
10000080
102
{ACAD_REACTORS
330
1000007F
102
}
330
1000007F
100
AcDbXrecord
1000
KFFT
  0
XRECORD
  5
10000083
102
{ACAD_REACTORS
330
10000082
102
}
330
10000082
100
AcDbXrecord
1000
KFBT
  0
XRECORD
  5
10000085
102
{ACAD_REACTORS
330
10000084
102
}
330
10000084
100
AcDbXrecord
1000
KF9S
  0
XRECORD
  5
1000008A
102
{ACAD_REACTORS
330
10000089
102
}
330
10000089
100
AcDbXrecord
1000
KF5S
  0
XRECORD
  5
10000090
102
{ACAD_REACTORS
330
1000008F
102
}
330
1000008F
100
AcDbXrecord
1000
KF1S
  0
XRECORD
  5
10000096
102
{ACAD_REACTORS
330
10000095
102
}
330
10000095
100
AcDbXrecord
1000
KFxS
  0
XRECORD
  5
1000009C
102
{ACAD_REACTORS
330
1000009B
102
}
330
1000009B
100
AcDbXrecord
1000
KFtS
  0
XRECORD
  5
100000A2
102
{ACAD_REACTORS
330
100000A1
102
}
330
100000A1
100
AcDbXrecord
1000
KFpS
  0
XRECORD
  5
100000A8
102
{ACAD_REACTORS
330
100000A7
102
}
330
100000A7
100
AcDbXrecord
1000
KFlS
  0
XRECORD
  5
100000AE
102
{ACAD_REACTORS
330
100000AD
102
}
330
100000AD
100
AcDbXrecord
1000
KFhS
  0
XRECORD
  5
100000B4
102
{ACAD_REACTORS
330
100000B3
102
}
330
100000B3
100
AcDbXrecord
1000
KFdS
  0
XRECORD
  5
100000B7
102
{ACAD_REACTORS
330
100000B6
102
}
330
100000B6
100
AcDbXrecord
1000
KFZS
  0
XRECORD
  5
100000B9
102
{ACAD_REACTORS
330
100000B8
102
}
330
100000B8
100
AcDbXrecord
1000
KFVS
  0
XRECORD
  5
100000BB
102
{ACAD_REACTORS
330
100000BA
102
}
330
100000BA
100
AcDbXrecord
1000
KFRS
  0
XRECORD
  5
100000BD
102
{ACAD_REACTORS
330
100000BC
102
}
330
100000BC
100
AcDbXrecord
1000
KFNS
  0
XRECORD
  5
100000BF
102
{ACAD_REACTORS
330
100000BE
102
}
330
100000BE
100
AcDbXrecord
1000
KFJS
  0
XRECORD
  5
100000C1
102
{ACAD_REACTORS
330
100000C0
102
}
330
100000C0
100
AcDbXrecord
1000
KFFS
  0
XRECORD
  5
100000C6
102
{ACAD_REACTORS
330
100000C5
102
}
330
100000C5
100
AcDbXrecord
1000
KFBS
  0
XRECORD
  5
100000CC
102
{ACAD_REACTORS
330
100000CB
102
}
330
100000CB
100
AcDbXrecord
1000
KF9R
  0
XRECORD
  5
100000D2
102
{ACAD_REACTORS
330
100000D1
102
}
330
100000D1
100
AcDbXrecord
1000
KF5R
  0
XRECORD
  5
100000D5
102
{ACAD_REACTORS
330
100000D4
102
}
330
100000D4
100
AcDbXrecord
1000
KF1R
  0
XRECORD
  5
100000DA
102
{ACAD_REACTORS
330
100000D9
102
}
330
100000D9
100
AcDbXrecord
1000
KFxR
  0
XRECORD
  5
100000E0
102
{ACAD_REACTORS
330
100000DF
102
}
330
100000DF
100
AcDbXrecord
1000
KFtR
  0
XRECORD
  5
100000E6
102
{ACAD_REACTORS
330
100000E5
102
}
330
100000E5
100
AcDbXrecord
1000
KFpR
  0
XRECORD
  5
100000EC
102
{ACAD_REACTORS
330
100000EB
102
}
330
100000EB
100
AcDbXrecord
1000
KFlR
  0
XRECORD
  5
100000F2
102
{ACAD_REACTORS
330
100000F1
102
}
330
100000F1
100
AcDbXrecord
1000
KFhR
  0
XRECORD
  5
100000F5
102
{ACAD_REACTORS
330
100000F4
102
}
330
100000F4
100
AcDbXrecord
1000
KFdR
  0
XRECORD
  5
100000F9
102
{ACAD_REACTORS
330
100000F6
102
}
330
100000F6
100
AcDbXrecord
1040
0.0
1040
0.0
1040
0.0
  0
XRECORD
  5
100000FA
102
{ACAD_REACTORS
330
100000F6
102
}
330
100000F6
100
AcDbXrecord
 40
0.0
  0
XRECORD
  5
100000F7
102
{ACAD_REACTORS
330
100000F6
102
}
330
100000F6
100
AcDbXrecord
1000
KFZR
  0
ACAD_PROXY_OBJECT
  5
100000F8
102
{ACAD_REACTORS
330
100000F6
102
}
330
100000F6
100
AcDbProxyObject
 90
      499
 91
      509
 93
       34
310
40C8804040
  0
XRECORD
  5
100000FF
102
{ACAD_REACTORS
330
100000FE
102
}
330
100000FE
100
AcDbXrecord
1000
KFVR
  0
XRECORD
  5
10000105
102
{ACAD_REACTORS
330
10000104
102
}
330
10000104
100
AcDbXrecord
1000
KFRR
  0
XRECORD
  5
10000108
102
{ACAD_REACTORS
330
10000107
102
}
330
10000107
100
AcDbXrecord
1000
KFNR
  0
XRECORD
  5
1000010C
102
{ACAD_REACTORS
330
10000109
102
}
330
10000109
100
AcDbXrecord
1040
0.0
1040
0.0
1040
0.0
  0
XRECORD
  5
1000010D
102
{ACAD_REACTORS
330
10000109
102
}
330
10000109
100
AcDbXrecord
 40
0.0
  0
XRECORD
  5
1000010A
102
{ACAD_REACTORS
330
10000109
102
}
330
10000109
100
AcDbXrecord
1000
KFJR
  0
ACAD_PROXY_OBJECT
  5
1000010B
102
{ACAD_REACTORS
330
10000109
102
}
330
10000109
100
AcDbProxyObject
 90
      499
 91
      509
 93
       34
310
40C8804040
  0
XRECORD
  5
10000112
102
{ACAD_REACTORS
330
10000111
102
}
330
10000111
100
AcDbXrecord
1000
KFFR
  0
XRECORD
  5
10000118
102
{ACAD_REACTORS
330
10000117
102
}
330
10000117
100
AcDbXrecord
1000
KFBR
  0
XRECORD
  5
1000011E
102
{ACAD_REACTORS
330
1000011D
102
}
330
1000011D
100
AcDbXrecord
1000
KF9Q
  0
XRECORD
  5
10000124
102
{ACAD_REACTORS
330
10000123
102
}
330
10000123
100
AcDbXrecord
1000
KF5Q
  0
XRECORD
  5
10000127
102
{ACAD_REACTORS
330
10000126
102
}
330
10000126
100
AcDbXrecord
1000
KF1Q
  0
XRECORD
  5
1000012C
102
{ACAD_REACTORS
330
1000012B
102
}
330
1000012B
100
AcDbXrecord
1000
KFxQ
  0
XRECORD
  5
10000132
102
{ACAD_REACTORS
330
10000131
102
}
330
10000131
100
AcDbXrecord
1000
KFtQ
  0
XRECORD
  5
10000138
102
{ACAD_REACTORS
330
10000137
102
}
330
10000137
100
AcDbXrecord
1000
KFpQ
  0
XRECORD
  5
1000013B
102
{ACAD_REACTORS
330
1000013A
102
}
330
1000013A
100
AcDbXrecord
1000
KFlQ
  0
XRECORD
  5
1000013F
102
{ACAD_REACTORS
330
1000013C
102
}
330
1000013C
100
AcDbXrecord
1040
0.0
1040
0.0
1040
0.0
  0
XRECORD
  5
10000140
102
{ACAD_REACTORS
330
1000013C
102
}
330
1000013C
100
AcDbXrecord
 40
231.8847179412844
  0
XRECORD
  5
1000013D
102
{ACAD_REACTORS
330
1000013C
102
}
330
1000013C
100
AcDbXrecord
1000
KFhQ
  0
ACAD_PROXY_OBJECT
  5
1000013E
102
{ACAD_REACTORS
330
1000013C
102
}
330
1000013C
100
AcDbProxyObject
 90
      499
 91
      509
 93
       34
310
40C8804040
  0
XRECORD
  5
10000145
102
{ACAD_REACTORS
330
10000144
102
}
330
10000144
100
AcDbXrecord
1000
KFdQ
  0
XRECORD
  5
1000014B
102
{ACAD_REACTORS
330
1000014A
102
}
330
1000014A
100
AcDbXrecord
1000
KFZQ
  0
XRECORD
  5
10000151
102
{ACAD_REACTORS
330
10000150
102
}
330
10000150
100
AcDbXrecord
1000
KFVQ
  0
XRECORD
  5
10000157
102
{ACAD_REACTORS
330
10000156
102
}
330
10000156
100
AcDbXrecord
1000
KFRQ
  0
XRECORD
  5
1000015D
102
{ACAD_REACTORS
330
1000015C
102
}
330
1000015C
100
AcDbXrecord
1000
KFNQ
  0
XRECORD
  5
10000160
102
{ACAD_REACTORS
330
1000015F
102
}
330
1000015F
100
AcDbXrecord
1000
KFJQ
  0
XRECORD
  5
10000164
102
{ACAD_REACTORS
330
10000161
102
}
330
10000161
100
AcDbXrecord
1040
0.0
1040
0.0
1040
0.0
  0
XRECORD
  5
10000165
102
{ACAD_REACTORS
330
10000161
102
}
330
10000161
100
AcDbXrecord
 40
0.0
  0
XRECORD
  5
10000162
102
{ACAD_REACTORS
330
10000161
102
}
330
10000161
100
AcDbXrecord
1000
KFFQ
  0
ACAD_PROXY_OBJECT
  5
10000163
102
{ACAD_REACTORS
330
10000161
102
}
330
10000161
100
AcDbProxyObject
 90
      499
 91
      509
 93
       34
310
40C8804040
  0
XRECORD
  5
10000169
102
{ACAD_REACTORS
330
10000166
102
}
330
10000166
100
AcDbXrecord
1040
0.0
1040
0.0
1040
0.0
  0
XRECORD
  5
1000016A
102
{ACAD_REACTORS
330
10000166
102
}
330
10000166
100
AcDbXrecord
 40
0.0
  0
XRECORD
  5
10000167
102
{ACAD_REACTORS
330
10000166
102
}
330
10000166
100
AcDbXrecord
1000
KFBQ
  0
ACAD_PROXY_OBJECT
  5
10000168
102
{ACAD_REACTORS
330
10000166
102
}
330
10000166
100
AcDbProxyObject
 90
      499
 91
      509
 93
       34
310
40C8804040
  0
XRECORD
  5
1000016E
102
{ACAD_REACTORS
330
1000016B
102
}
330
1000016B
100
AcDbXrecord
1040
0.0
1040
0.0
1040
0.0
  0
XRECORD
  5
1000016F
102
{ACAD_REACTORS
330
1000016B
102
}
330
1000016B
100
AcDbXrecord
 40
0.0
  0
XRECORD
  5
1000016C
102
{ACAD_REACTORS
330
1000016B
102
}
330
1000016B
100
AcDbXrecord
1000
KF9P
  0
ACAD_PROXY_OBJECT
  5
1000016D
102
{ACAD_REACTORS
330
1000016B
102
}
330
1000016B
100
AcDbProxyObject
 90
      499
 91
      509
 93
       34
310
40C8804040
  0
XRECORD
  5
10000174
102
{ACAD_REACTORS
330
10000173
102
}
330
10000173
100
AcDbXrecord
1000
KF5P
  0
XRECORD
  5
1000017A
102
{ACAD_REACTORS
330
10000179
102
}
330
10000179
100
AcDbXrecord
1000
KF1P
  0
XRECORD
  5
10000180
102
{ACAD_REACTORS
330
1000017F
102
}
330
1000017F
100
AcDbXrecord
1000
KFxP
  0
XRECORD
  5
10000186
102
{ACAD_REACTORS
330
10000185
102
}
330
10000185
100
AcDbXrecord
1000
KFtP
  0
XRECORD
  5
10000189
102
{ACAD_REACTORS
330
10000188
102
}
330
10000188
100
AcDbXrecord
1000
KFpP
  0
XRECORD
  5
1000018D
102
{ACAD_REACTORS
330
1000018A
102
}
330
1000018A
100
AcDbXrecord
1040
0.0
1040
0.0
1040
0.0
  0
XRECORD
  5
1000018E
102
{ACAD_REACTORS
330
1000018A
102
}
330
1000018A
100
AcDbXrecord
 40
0.0
  0
XRECORD
  5
1000018B
102
{ACAD_REACTORS
330
1000018A
102
}
330
1000018A
100
AcDbXrecord
1000
KFlP
  0
ACAD_PROXY_OBJECT
  5
1000018C
102
{ACAD_REACTORS
330
1000018A
102
}
330
1000018A
100
AcDbProxyObject
 90
      499
 91
      509
 93
       34
310
40C8804040
  0
XRECORD
  5
10000192
102
{ACAD_REACTORS
330
1000018F
102
}
330
1000018F
100
AcDbXrecord
1040
0.0
1040
0.0
1040
0.0
  0
XRECORD
  5
10000193
102
{ACAD_REACTORS
330
1000018F
102
}
330
1000018F
100
AcDbXrecord
 40
0.0
  0
XRECORD
  5
10000190
102
{ACAD_REACTORS
330
1000018F
102
}
330
1000018F
100
AcDbXrecord
1000
KFhP
  0
ACAD_PROXY_OBJECT
  5
10000191
102
{ACAD_REACTORS
330
1000018F
102
}
330
1000018F
100
AcDbProxyObject
 90
      499
 91
      509
 93
       34
310
40C8804040
  0
XRECORD
  5
10000197
102
{ACAD_REACTORS
330
10000194
102
}
330
10000194
100
AcDbXrecord
1040
0.0
1040
0.0
1040
0.0
  0
XRECORD
  5
10000198
102
{ACAD_REACTORS
330
10000194
102
}
330
10000194
100
AcDbXrecord
 40
0.0
  0
XRECORD
  5
10000195
102
{ACAD_REACTORS
330
10000194
102
}
330
10000194
100
AcDbXrecord
1000
KFdP
  0
ACAD_PROXY_OBJECT
  5
10000196
102
{ACAD_REACTORS
330
10000194
102
}
330
10000194
100
AcDbProxyObject
 90
      499
 91
      509
 93
       34
310
40C8804040
  0
XRECORD
  5
1000019C
102
{ACAD_REACTORS
330
10000199
102
}
330
10000199
100
AcDbXrecord
1040
0.0
1040
0.0
1040
0.0
  0
XRECORD
  5
1000019D
102
{ACAD_REACTORS
330
10000199
102
}
330
10000199
100
AcDbXrecord
 40
0.0
  0
XRECORD
  5
1000019A
102
{ACAD_REACTORS
330
10000199
102
}
330
10000199
100
AcDbXrecord
1000
KFZP
  0
ACAD_PROXY_OBJECT
  5
1000019B
102
{ACAD_REACTORS
330
10000199
102
}
330
10000199
100
AcDbProxyObject
 90
      499
 91
      509
 93
       34
310
40C8804040
  0
XRECORD
  5
100001A1
102
{ACAD_REACTORS
330
1000019E
102
}
330
1000019E
100
AcDbXrecord
1040
0.0
1040
0.0
1040
0.0
  0
XRECORD
  5
100001A2
102
{ACAD_REACTORS
330
1000019E
102
}
330
1000019E
100
AcDbXrecord
 40
0.0
  0
XRECORD
  5
1000019F
102
{ACAD_REACTORS
330
1000019E
102
}
330
1000019E
100
AcDbXrecord
1000
KFVP
  0
ACAD_PROXY_OBJECT
  5
100001A0
102
{ACAD_REACTORS
330
1000019E
102
}
330
1000019E
100
AcDbProxyObject
 90
      499
 91
      509
 93
       34
310
40C8804040
  0
XRECORD
  5
100001A7
102
{ACAD_REACTORS
330
100001A6
102
}
330
100001A6
100
AcDbXrecord
1000
KFRP
  0
XRECORD
  5
100001AD
102
{ACAD_REACTORS
330
100001AC
102
}
330
100001AC
100
AcDbXrecord
1000
KFNP
  0
XRECORD
  5
100001B3
102
{ACAD_REACTORS
330
100001B2
102
}
330
100001B2
100
AcDbXrecord
1000
KFJP
  0
XRECORD
  5
100001B9
102
{ACAD_REACTORS
330
100001B8
102
}
330
100001B8
100
AcDbXrecord
1000
KFFP
  0
XRECORD
  5
100001BC
102
{ACAD_REACTORS
330
100001BB
102
}
330
100001BB
100
AcDbXrecord
1000
KFBP
  0
XRECORD
  5
100001C1
102
{ACAD_REACTORS
330
100001C0
102
}
330
100001C0
100
AcDbXrecord
1000
KF9O
  0
XRECORD
  5
100001C4
102
{ACAD_REACTORS
330
100001C3
102
}
330
100001C3
100
AcDbXrecord
1000
KF5O
  0
XRECORD
  5
100001C9
102
{ACAD_REACTORS
330
100001C8
102
}
330
100001C8
100
AcDbXrecord
1000
KF1O
  0
XRECORD
  5
100001CC
102
{ACAD_REACTORS
330
100001CB
102
}
330
100001CB
100
AcDbXrecord
1000
KFxO
  0
XRECORD
  5
100001CE
102
{ACAD_REACTORS
330
100001CD
102
}
330
100001CD
100
AcDbXrecord
1000
KFtO
  0
XRECORD
  5
100001D0
102
{ACAD_REACTORS
330
100001CF
102
}
330
100001CF
100
AcDbXrecord
1000
KFpO
  0
XRECORD
  5
100001D2
102
{ACAD_REACTORS
330
100001D1
102
}
330
100001D1
100
AcDbXrecord
1000
KFlO
  0
XRECORD
  5
100001D4
102
{ACAD_REACTORS
330
100001D3
102
}
330
100001D3
100
AcDbXrecord
1000
KFhO
  0
XRECORD
  5
100001D6
102
{ACAD_REACTORS
330
100001D5
102
}
330
100001D5
100
AcDbXrecord
1000
KFdO
  0
XRECORD
  5
100001DB
102
{ACAD_REACTORS
330
100001DA
102
}
330
100001DA
100
AcDbXrecord
1000
KFZO
  0
XRECORD
  5
100001E1
102
{ACAD_REACTORS
330
100001E0
102
}
330
100001E0
100
AcDbXrecord
1000
KFVO
  0
XRECORD
  5
100001E7
102
{ACAD_REACTORS
330
100001E6
102
}
330
100001E6
100
AcDbXrecord
1000
KFRO
  0
XRECORD
  5
100001ED
102
{ACAD_REACTORS
330
100001EC
102
}
330
100001EC
100
AcDbXrecord
1000
KFNO
  0
XRECORD
  5
100001F3
102
{ACAD_REACTORS
330
100001F2
102
}
330
100001F2
100
AcDbXrecord
1000
KFJO
  0
XRECORD
  5
100001F9
102
{ACAD_REACTORS
330
100001F8
102
}
330
100001F8
100
AcDbXrecord
1000
KFFO
  0
XRECORD
  5
100001FF
102
{ACAD_REACTORS
330
100001FE
102
}
330
100001FE
100
AcDbXrecord
1000
KFBO
  0
XRECORD
  5
10000205
102
{ACAD_REACTORS
330
10000204
102
}
330
10000204
100
AcDbXrecord
1000
KF9N
  0
XRECORD
  5
1000020B
102
{ACAD_REACTORS
330
1000020A
102
}
330
1000020A
100
AcDbXrecord
1000
KF5N
  0
XRECORD
  5
10000211
102
{ACAD_REACTORS
330
10000210
102
}
330
10000210
100
AcDbXrecord
1000
KF1N
  0
XRECORD
  5
10000217
102
{ACAD_REACTORS
330
10000216
102
}
330
10000216
100
AcDbXrecord
1000
KFxN
  0
XRECORD
  5
1000021A
102
{ACAD_REACTORS
330
10000219
102
}
330
10000219
100
AcDbXrecord
1000
KFtN
  0
XRECORD
  5
1000021F
102
{ACAD_REACTORS
330
1000021E
102
}
330
1000021E
100
AcDbXrecord
1000
KFpN
  0
XRECORD
  5
10000225
102
{ACAD_REACTORS
330
10000224
102
}
330
10000224
100
AcDbXrecord
1000
KFlN
  0
XRECORD
  5
1000022B
102
{ACAD_REACTORS
330
1000022A
102
}
330
1000022A
100
AcDbXrecord
1000
KFhN
  0
XRECORD
  5
10000231
102
{ACAD_REACTORS
330
10000230
102
}
330
10000230
100
AcDbXrecord
1000
KFdN
  0
XRECORD
  5
10000237
102
{ACAD_REACTORS
330
10000236
102
}
330
10000236
100
AcDbXrecord
1000
KFBG
  0
XRECORD
  5
1000023D
102
{ACAD_REACTORS
330
1000023C
102
}
330
1000023C
100
AcDbXrecord
1000
KF9F
  0
XRECORD
  5
10000240
102
{ACAD_REACTORS
330
1000023F
102
}
330
1000023F
100
AcDbXrecord
1000
KF5F
  0
XRECORD
  5
10000245
102
{ACAD_REACTORS
330
10000244
102
}
330
10000244
100
AcDbXrecord
1000
KF1F
  0
XRECORD
  5
1000024B
102
{ACAD_REACTORS
330
1000024A
102
}
330
1000024A
100
AcDbXrecord
1000
KFxF
  0
XRECORD
  5
10000251
102
{ACAD_REACTORS
330
10000250
102
}
330
10000250
100
AcDbXrecord
1000
KFtF
  0
XRECORD
  5
10000257
102
{ACAD_REACTORS
330
10000256
102
}
330
10000256
100
AcDbXrecord
1000
KFpF
  0
XRECORD
  5
1000025D
102
{ACAD_REACTORS
330
1000025C
102
}
330
1000025C
100
AcDbXrecord
1000
KFlF
  0
XRECORD
  5
10000263
102
{ACAD_REACTORS
330
10000262
102
}
330
10000262
100
AcDbXrecord
1000
KFhF
  0
XRECORD
  5
10000269
102
{ACAD_REACTORS
330
10000268
102
}
330
10000268
100
AcDbXrecord
1000
KFdF
  0
XRECORD
  5
1000026F
102
{ACAD_REACTORS
330
1000026E
102
}
330
1000026E
100
AcDbXrecord
1000
KFZF
  0
XRECORD
  5
10000275
102
{ACAD_REACTORS
330
10000274
102
}
330
10000274
100
AcDbXrecord
1000
KFVF
  0
XRECORD
  5
1000027B
102
{ACAD_REACTORS
330
1000027A
102
}
330
1000027A
100
AcDbXrecord
1000
KFRF
  0
XRECORD
  5
10000281
102
{ACAD_REACTORS
330
10000280
102
}
330
10000280
100
AcDbXrecord
1000
KFNF
  0
XRECORD
  5
10000287
102
{ACAD_REACTORS
330
10000286
102
}
330
10000286
100
AcDbXrecord
1000
KFJF
  0
XRECORD
  5
1000028D
102
{ACAD_REACTORS
330
1000028C
102
}
330
1000028C
100
AcDbXrecord
1000
KFFF
  0
XRECORD
  5
10000293
102
{ACAD_REACTORS
330
10000292
102
}
330
10000292
100
AcDbXrecord
1000
KFBF
  0
XRECORD
  5
10000299
102
{ACAD_REACTORS
330
10000298
102
}
330
10000298
100
AcDbXrecord
1000
KF9E
  0
XRECORD
  5
1000029F
102
{ACAD_REACTORS
330
1000029E
102
}
330
1000029E
100
AcDbXrecord
1000
KF5E
  0
XRECORD
  5
100002A5
102
{ACAD_REACTORS
330
100002A4
102
}
330
100002A4
100
AcDbXrecord
1000
KF1E
  0
XRECORD
  5
100002A8
102
{ACAD_REACTORS
330
100002A7
102
}
330
100002A7
100
AcDbXrecord
1000
KFdE
  0
XRECORD
  5
100002AC
102
{ACAD_REACTORS
330
100002A9
102
}
330
100002A9
100
AcDbXrecord
1040
0.0
1040
0.0
1040
0.0
  0
XRECORD
  5
100002AD
102
{ACAD_REACTORS
330
100002A9
102
}
330
100002A9
100
AcDbXrecord
 40
0.0
  0
XRECORD
  5
100002AA
102
{ACAD_REACTORS
330
100002A9
102
}
330
100002A9
100
AcDbXrecord
1000
KFZE
  0
ACAD_PROXY_OBJECT
  5
100002AB
102
{ACAD_REACTORS
330
100002A9
102
}
330
100002A9
100
AcDbProxyObject
 90
      499
 91
      509
 93
       34
310
40C8804040
  0
XRECORD
  5
100002AF
102
{ACAD_REACTORS
330
100002AE
102
}
330
100002AE
100
AcDbXrecord
1000
KF1C
  0
XRECORD
  5
100002B1
102
{ACAD_REACTORS
330
100002B0
102
}
330
100002B0
100
AcDbXrecord
1000
KFxC
  0
XRECORD
  5
100002B3
102
{ACAD_REACTORS
330
100002B2
102
}
330
100002B2
100
AcDbXrecord
1000
KFtC
  0
XRECORD
  5
100002B5
102
{ACAD_REACTORS
330
100002B4
102
}
330
100002B4
100
AcDbXrecord
1000
KFpC
  0
XRECORD
  5
100002B7
102
{ACAD_REACTORS
330
100002B6
102
}
330
100002B6
100
AcDbXrecord
1000
KFlC
  0
XRECORD
  5
100002B9
102
{ACAD_REACTORS
330
100002B8
102
}
330
100002B8
100
AcDbXrecord
1000
KFhC
  0
XRECORD
  5
100002BD
102
{ACAD_REACTORS
330
100002BA
102
}
330
100002BA
100
AcDbXrecord
1040
0.0
1040
0.0
1040
0.0
  0
XRECORD
  5
100002BE
102
{ACAD_REACTORS
330
100002BA
102
}
330
100002BA
100
AcDbXrecord
 40
0.0
  0
XRECORD
  5
100002BB
102
{ACAD_REACTORS
330
100002BA
102
}
330
100002BA
100
AcDbXrecord
1000
KFdC
  0
ACAD_PROXY_OBJECT
  5
100002BC
102
{ACAD_REACTORS
330
100002BA
102
}
330
100002BA
100
AcDbProxyObject
 90
      499
 91
      509
 93
       34
310
40C8804040
  0
XRECORD
  5
100002C2
102
{ACAD_REACTORS
330
100002BF
102
}
330
100002BF
100
AcDbXrecord
1040
0.0
1040
0.0
1040
0.0
  0
XRECORD
  5
100002C3
102
{ACAD_REACTORS
330
100002BF
102
}
330
100002BF
100
AcDbXrecord
 40
0.0
  0
XRECORD
  5
100002C0
102
{ACAD_REACTORS
330
100002BF
102
}
330
100002BF
100
AcDbXrecord
1000
KFZC
  0
ACAD_PROXY_OBJECT
  5
100002C1
102
{ACAD_REACTORS
330
100002BF
102
}
330
100002BF
100
AcDbProxyObject
 90
      499
 91
      509
 93
       34
310
40C8804040
  0
XRECORD
  5
100002C7
102
{ACAD_REACTORS
330
100002C4
102
}
330
100002C4
100
AcDbXrecord
1040
0.0
1040
0.0
1040
0.0
  0
XRECORD
  5
100002C8
102
{ACAD_REACTORS
330
100002C4
102
}
330
100002C4
100
AcDbXrecord
 40
0.0
  0
XRECORD
  5
100002C5
102
{ACAD_REACTORS
330
100002C4
102
}
330
100002C4
100
AcDbXrecord
1000
KFVC
  0
ACAD_PROXY_OBJECT
  5
100002C6
102
{ACAD_REACTORS
330
100002C4
102
}
330
100002C4
100
AcDbProxyObject
 90
      499
 91
      509
 93
       34
310
40C8804040
  0
XRECORD
  5
100002CC
102
{ACAD_REACTORS
330
100002C9
102
}
330
100002C9
100
AcDbXrecord
1040
0.0
1040
0.0
1040
0.0
  0
XRECORD
  5
100002CD
102
{ACAD_REACTORS
330
100002C9
102
}
330
100002C9
100
AcDbXrecord
 40
0.0
  0
XRECORD
  5
100002CA
102
{ACAD_REACTORS
330
100002C9
102
}
330
100002C9
100
AcDbXrecord
1000
KFRC
  0
ACAD_PROXY_OBJECT
  5
100002CB
102
{ACAD_REACTORS
330
100002C9
102
}
330
100002C9
100
AcDbProxyObject
 90
      499
 91
      509
 93
       34
310
40C8804040
  0
XRECORD
  5
100002D1
102
{ACAD_REACTORS
330
100002CE
102
}
330
100002CE
100
AcDbXrecord
1040
0.0
1040
0.0
1040
0.0
  0
XRECORD
  5
100002D2
102
{ACAD_REACTORS
330
100002CE
102
}
330
100002CE
100
AcDbXrecord
 40
0.0
  0
XRECORD
  5
100002CF
102
{ACAD_REACTORS
330
100002CE
102
}
330
100002CE
100
AcDbXrecord
1000
KFNC
  0
ACAD_PROXY_OBJECT
  5
100002D0
102
{ACAD_REACTORS
330
100002CE
102
}
330
100002CE
100
AcDbProxyObject
 90
      499
 91
      509
 93
       34
310
40C8804040
  0
XRECORD
  5
100002D4
102
{ACAD_REACTORS
330
100002D3
102
}
330
100002D3
100
AcDbXrecord
1000
KF5C
  0
XRECORD
  5
100002D6
102
{ACAD_REACTORS
330
100002D5
102
}
330
100002D5
100
AcDbXrecord
1000
KF9C
  0
XRECORD
  5
100002DA
102
{ACAD_REACTORS
330
100002D7
102
}
330
100002D7
100
AcDbXrecord
1040
0.0
1040
0.0
1040
0.0
  0
XRECORD
  5
100002DB
102
{ACAD_REACTORS
330
100002D7
102
}
330
100002D7
100
AcDbXrecord
 40
0.0
  0
XRECORD
  5
100002D8
102
{ACAD_REACTORS
330
100002D7
102
}
330
100002D7
100
AcDbXrecord
1000
KF5B
  0
ACAD_PROXY_OBJECT
  5
100002D9
102
{ACAD_REACTORS
330
100002D7
102
}
330
100002D7
100
AcDbProxyObject
 90
      499
 91
      509
 93
       34
310
40C8804040
  0
XRECORD
  5
100002DF
102
{ACAD_REACTORS
330
100002DC
102
}
330
100002DC
100
AcDbXrecord
1040
0.0
1040
0.0
1040
0.0
  0
XRECORD
  5
100002E0
102
{ACAD_REACTORS
330
100002DC
102
}
330
100002DC
100
AcDbXrecord
 40
0.0
  0
XRECORD
  5
100002DD
102
{ACAD_REACTORS
330
100002DC
102
}
330
100002DC
100
AcDbXrecord
1000
KF9H
  0
ACAD_PROXY_OBJECT
  5
100002DE
102
{ACAD_REACTORS
330
100002DC
102
}
330
100002DC
100
AcDbProxyObject
 90
      499
 91
      509
 93
       34
310
40C8804040
  0
XRECORD
  5
100002E4
102
{ACAD_REACTORS
330
100002E1
102
}
330
100002E1
100
AcDbXrecord
1040
0.0
1040
0.0
1040
0.0
  0
XRECORD
  5
100002E5
102
{ACAD_REACTORS
330
100002E1
102
}
330
100002E1
100
AcDbXrecord
 40
0.0
  0
XRECORD
  5
100002E2
102
{ACAD_REACTORS
330
100002E1
102
}
330
100002E1
100
AcDbXrecord
1000
KF9B
  0
ACAD_PROXY_OBJECT
  5
100002E3
102
{ACAD_REACTORS
330
100002E1
102
}
330
100002E1
100
AcDbProxyObject
 90
      499
 91
      509
 93
       34
310
40C8804040
  0
XRECORD
  5
100002EA
102
{ACAD_REACTORS
330
100002E9
102
}
330
100002E9
100
AcDbXrecord
1000
KFBI
  0
XRECORD
  5
100002ED
102
{ACAD_REACTORS
330
100002EC
102
}
330
100002EC
100
AcDbXrecord
1000
KFBC
  0
XRECORD
  5
100002F2
102
{ACAD_REACTORS
330
100002F1
102
}
330
100002F1
100
AcDbXrecord
1000
KFFI
  0
XRECORD
  5
100002F5
102
{ACAD_REACTORS
330
100002F4
102
}
330
100002F4
100
AcDbXrecord
1000
KFFC
  0
XRECORD
  5
100002F9
102
{ACAD_REACTORS
330
100002F6
102
}
330
100002F6
100
AcDbXrecord
1040
0.0
1040
0.0
1040
0.0
  0
XRECORD
  5
100002FA
102
{ACAD_REACTORS
330
100002F6
102
}
330
100002F6
100
AcDbXrecord
 40
0.0
  0
XRECORD
  5
100002F7
102
{ACAD_REACTORS
330
100002F6
102
}
330
100002F6
100
AcDbXrecord
1000
KFJI
  0
ACAD_PROXY_OBJECT
  5
100002F8
102
{ACAD_REACTORS
330
100002F6
102
}
330
100002F6
100
AcDbProxyObject
 90
      499
 91
      509
 93
       34
310
40C8804040
  0
XRECORD
  5
100002FE
102
{ACAD_REACTORS
330
100002FB
102
}
330
100002FB
100
AcDbXrecord
1040
0.0
1040
0.0
1040
0.0
  0
XRECORD
  5
100002FF
102
{ACAD_REACTORS
330
100002FB
102
}
330
100002FB
100
AcDbXrecord
 40
0.0
  0
XRECORD
  5
100002FC
102
{ACAD_REACTORS
330
100002FB
102
}
330
100002FB
100
AcDbXrecord
1000
KFJC
  0
ACAD_PROXY_OBJECT
  5
100002FD
102
{ACAD_REACTORS
330
100002FB
102
}
330
100002FB
100
AcDbProxyObject
 90
      499
 91
      509
 93
       34
310
40C8804040
  0
XRECORD
  5
10000303
102
{ACAD_REACTORS
330
10000300
102
}
330
10000300
100
AcDbXrecord
1040
0.0
1040
0.0
1040
0.0
  0
XRECORD
  5
10000304
102
{ACAD_REACTORS
330
10000300
102
}
330
10000300
100
AcDbXrecord
 40
0.0
  0
XRECORD
  5
10000301
102
{ACAD_REACTORS
330
10000300
102
}
330
10000300
100
AcDbXrecord
1000
KFNI
  0
ACAD_PROXY_OBJECT
  5
10000302
102
{ACAD_REACTORS
330
10000300
102
}
330
10000300
100
AcDbProxyObject
 90
      499
 91
      509
 93
       34
310
40C8804040
  0
XRECORD
  5
10000309
102
{ACAD_REACTORS
330
10000308
102
}
330
10000308
100
AcDbXrecord
1000
KFFG
  0
XRECORD
  5
1000030C
102
{ACAD_REACTORS
330
1000030B
102
}
330
1000030B
100
AcDbXrecord
1000
JFB
  0
XRECORD
  5
10000311
102
{ACAD_REACTORS
330
10000310
102
}
330
10000310
100
AcDbXrecord
1000
KFdM
  0
XRECORD
  5
10000317
102
{ACAD_REACTORS
330
10000316
102
}
330
10000316
100
AcDbXrecord
1000
KFJG
  0
XRECORD
  5
1000031A
102
{ACAD_REACTORS
330
10000319
102
}
330
10000319
100
AcDbXrecord
1000
JFF
  0
XRECORD
  5
1000031F
102
{ACAD_REACTORS
330
1000031E
102
}
330
1000031E
100
AcDbXrecord
1000
KFhM
  0
XRECORD
  5
10000322
102
{ACAD_REACTORS
330
10000321
102
}
330
10000321
100
AcDbXrecord
1000
KFBD
  0
XRECORD
  5
10000324
102
{ACAD_REACTORS
330
10000323
102
}
330
10000323
100
AcDbXrecord
1000
KFpB
  0
XRECORD
  5
10000329
102
{ACAD_REACTORS
330
10000328
102
}
330
10000328
100
AcDbXrecord
1000
KFtH
  0
XRECORD
  5
1000032C
102
{ACAD_REACTORS
330
1000032B
102
}
330
1000032B
100
AcDbXrecord
1000
JFh
  0
XRECORD
  5
10000331
102
{ACAD_REACTORS
330
10000330
102
}
330
10000330
100
AcDbXrecord
1000
KF9M
  0
XRECORD
  5
10000334
102
{ACAD_REACTORS
330
10000333
102
}
330
10000333
100
AcDbXrecord
1000
KFdD
  0
XRECORD
  5
10000336
102
{ACAD_REACTORS
330
10000335
102
}
330
10000335
100
AcDbXrecord
1000
KFtB
  0
XRECORD
  5
1000033B
102
{ACAD_REACTORS
330
1000033A
102
}
330
1000033A
100
AcDbXrecord
1000
KFxH
  0
XRECORD
  5
1000033E
102
{ACAD_REACTORS
330
1000033D
102
}
330
1000033D
100
AcDbXrecord
1000
JFl
  0
XRECORD
  5
10000342
102
{ACAD_REACTORS
330
1000033F
102
}
330
1000033F
100
AcDbXrecord
1040
0.0
1040
0.0
1040
0.0
  0
XRECORD
  5
10000343
102
{ACAD_REACTORS
330
1000033F
102
}
330
1000033F
100
AcDbXrecord
 40
0.0
  0
XRECORD
  5
10000340
102
{ACAD_REACTORS
330
1000033F
102
}
330
1000033F
100
AcDbXrecord
1000
KFBN
  0
ACAD_PROXY_OBJECT
  5
10000341
102
{ACAD_REACTORS
330
1000033F
102
}
330
1000033F
100
AcDbProxyObject
 90
      499
 91
      509
 93
       34
310
40C8804040
  0
XRECORD
  5
10000347
102
{ACAD_REACTORS
330
10000344
102
}
330
10000344
100
AcDbXrecord
1040
0.0
1040
0.0
1040
0.0
  0
XRECORD
  5
10000348
102
{ACAD_REACTORS
330
10000344
102
}
330
10000344
100
AcDbXrecord
 40
0.0
  0
XRECORD
  5
10000345
102
{ACAD_REACTORS
330
10000344
102
}
330
10000344
100
AcDbXrecord
1000
KFhD
  0
ACAD_PROXY_OBJECT
  5
10000346
102
{ACAD_REACTORS
330
10000344
102
}
330
10000344
100
AcDbProxyObject
 90
      499
 91
      509
 93
       34
310
40C8804040
  0
XRECORD
  5
1000034C
102
{ACAD_REACTORS
330
10000349
102
}
330
10000349
100
AcDbXrecord
1040
0.0
1040
0.0
1040
0.0
  0
XRECORD
  5
1000034D
102
{ACAD_REACTORS
330
10000349
102
}
330
10000349
100
AcDbXrecord
 40
0.0
  0
XRECORD
  5
1000034A
102
{ACAD_REACTORS
330
10000349
102
}
330
10000349
100
AcDbXrecord
1000
KFxB
  0
ACAD_PROXY_OBJECT
  5
1000034B
102
{ACAD_REACTORS
330
10000349
102
}
330
10000349
100
AcDbProxyObject
 90
      499
 91
      509
 93
       34
310
40C8804040
  0
XRECORD
  5
10000352
102
{ACAD_REACTORS
330
10000351
102
}
330
10000351
100
AcDbXrecord
1000
KF1H
  0
XRECORD
  5
10000355
102
{ACAD_REACTORS
330
10000354
102
}
330
10000354
100
AcDbXrecord
1000
JFp
  0
XRECORD
  5
1000035A
102
{ACAD_REACTORS
330
10000359
102
}
330
10000359
100
AcDbXrecord
1000
KFFN
  0
XRECORD
  5
1000035D
102
{ACAD_REACTORS
330
1000035C
102
}
330
1000035C
100
AcDbXrecord
1000
KFlD
  0
XRECORD
  5
1000035F
102
{ACAD_REACTORS
330
1000035E
102
}
330
1000035E
100
AcDbXrecord
1000
KF1B
  0
XRECORD
  5
10000364
102
{ACAD_REACTORS
330
10000363
102
}
330
10000363
100
AcDbXrecord
1000
KF5H
  0
XRECORD
  5
10000367
102
{ACAD_REACTORS
330
10000366
102
}
330
10000366
100
AcDbXrecord
1000
JFt
  0
XRECORD
  5
1000036C
102
{ACAD_REACTORS
330
1000036B
102
}
330
1000036B
100
AcDbXrecord
1000
KFJN
  0
XRECORD
  5
10000371
102
{ACAD_REACTORS
330
1000036E
102
}
330
1000036E
100
AcDbXrecord
1040
0.0
1040
0.0
1040
0.0
  0
XRECORD
  5
10000372
102
{ACAD_REACTORS
330
1000036E
102
}
330
1000036E
100
AcDbXrecord
 40
210.2745501917161
  0
XRECORD
  5
1000036F
102
{ACAD_REACTORS
330
1000036E
102
}
330
1000036E
100
AcDbXrecord
1000
KFpD
  0
ACAD_PROXY_OBJECT
  5
10000370
102
{ACAD_REACTORS
330
1000036E
102
}
330
1000036E
100
AcDbProxyObject
 90
      499
 91
      509
 93
       34
310
40C8804040
  0
XRECORD
  5
10000374
102
{ACAD_REACTORS
330
10000373
102
}
330
10000373
100
AcDbXrecord
1000
KFlB
  0
XRECORD
  5
10000378
102
{ACAD_REACTORS
330
10000375
102
}
330
10000375
100
AcDbXrecord
1040
0.0
1040
0.0
1040
0.0
  0
XRECORD
  5
10000379
102
{ACAD_REACTORS
330
10000375
102
}
330
10000375
100
AcDbXrecord
 40
0.0
  0
XRECORD
  5
10000376
102
{ACAD_REACTORS
330
10000375
102
}
330
10000375
100
AcDbXrecord
1000
KFpH
  0
ACAD_PROXY_OBJECT
  5
10000377
102
{ACAD_REACTORS
330
10000375
102
}
330
10000375
100
AcDbProxyObject
 90
      499
 91
      509
 93
       34
310
40C8804040
  0
XRECORD
  5
1000037B
102
{ACAD_REACTORS
330
1000037A
102
}
330
1000037A
100
AcDbXrecord
1000
JFd
  0
XRECORD
  5
10000380
102
{ACAD_REACTORS
330
1000037F
102
}
330
1000037F
100
AcDbXrecord
1000
KF5M
  0
XRECORD
  5
10000383
102
{ACAD_REACTORS
330
10000382
102
}
330
10000382
100
AcDbXrecord
1000
KFZD
  0
XRECORD
  5
10000385
102
{ACAD_REACTORS
330
10000384
102
}
330
10000384
100
AcDbXrecord
1000
JFZ
  0
XRECORD
  5
1000038A
102
{ACAD_REACTORS
330
10000389
102
}
330
10000389
100
AcDbXrecord
1000
KF1M
  0
XRECORD
  5
1000038F
102
{ACAD_REACTORS
330
1000038C
102
}
330
1000038C
100
AcDbXrecord
1040
0.0
1040
0.0
1040
0.0
  0
XRECORD
  5
10000390
102
{ACAD_REACTORS
330
1000038C
102
}
330
1000038C
100
AcDbXrecord
 40
0.0
  0
XRECORD
  5
1000038D
102
{ACAD_REACTORS
330
1000038C
102
}
330
1000038C
100
AcDbXrecord
1000
KFVD
  0
ACAD_PROXY_OBJECT
  5
1000038E
102
{ACAD_REACTORS
330
1000038C
102
}
330
1000038C
100
AcDbProxyObject
 90
      499
 91
      509
 93
       34
310
40C8804040
  0
XRECORD
  5
10000392
102
{ACAD_REACTORS
330
10000391
102
}
330
10000391
100
AcDbXrecord
1000
JFV
  0
XRECORD
  5
10000397
102
{ACAD_REACTORS
330
10000396
102
}
330
10000396
100
AcDbXrecord
1000
KFxM
  0
XRECORD
  5
1000039C
102
{ACAD_REACTORS
330
10000399
102
}
330
10000399
100
AcDbXrecord
1040
0.0
1040
0.0
1040
0.0
  0
XRECORD
  5
1000039D
102
{ACAD_REACTORS
330
10000399
102
}
330
10000399
100
AcDbXrecord
 40
0.0
  0
XRECORD
  5
1000039A
102
{ACAD_REACTORS
330
10000399
102
}
330
10000399
100
AcDbXrecord
1000
KFRD
  0
ACAD_PROXY_OBJECT
  5
1000039B
102
{ACAD_REACTORS
330
10000399
102
}
330
10000399
100
AcDbProxyObject
 90
      499
 91
      509
 93
       34
310
40C8804040
  0
XRECORD
  5
1000039F
102
{ACAD_REACTORS
330
1000039E
102
}
330
1000039E
100
AcDbXrecord
1000
JFR
  0
XRECORD
  5
100003A4
102
{ACAD_REACTORS
330
100003A3
102
}
330
100003A3
100
AcDbXrecord
1000
KFtM
  0
XRECORD
  5
100003A7
102
{ACAD_REACTORS
330
100003A6
102
}
330
100003A6
100
AcDbXrecord
1000
KFND
  0
XRECORD
  5
100003A9
102
{ACAD_REACTORS
330
100003A8
102
}
330
100003A8
100
AcDbXrecord
1000
KFRG
  0
XRECORD
  5
100003AD
102
{ACAD_REACTORS
330
100003AA
102
}
330
100003AA
100
AcDbXrecord
1040
0.0
1040
0.0
1040
0.0
  0
XRECORD
  5
100003AE
102
{ACAD_REACTORS
330
100003AA
102
}
330
100003AA
100
AcDbXrecord
 40
0.0
  0
XRECORD
  5
100003AB
102
{ACAD_REACTORS
330
100003AA
102
}
330
100003AA
100
AcDbXrecord
1000
JFN
  0
ACAD_PROXY_OBJECT
  5
100003AC
102
{ACAD_REACTORS
330
100003AA
102
}
330
100003AA
100
AcDbProxyObject
 90
      499
 91
      509
 93
       34
310
40C8804040
  0
XRECORD
  5
100003B3
102
{ACAD_REACTORS
330
100003B2
102
}
330
100003B2
100
AcDbXrecord
1000
KFpM
  0
XRECORD
  5
100003B8
102
{ACAD_REACTORS
330
100003B5
102
}
330
100003B5
100
AcDbXrecord
1040
0.0
1040
0.0
1040
0.0
  0
XRECORD
  5
100003B9
102
{ACAD_REACTORS
330
100003B5
102
}
330
100003B5
100
AcDbXrecord
 40
0.0
  0
XRECORD
  5
100003B6
102
{ACAD_REACTORS
330
100003B5
102
}
330
100003B5
100
AcDbXrecord
1000
KFJD
  0
ACAD_PROXY_OBJECT
  5
100003B7
102
{ACAD_REACTORS
330
100003B5
102
}
330
100003B5
100
AcDbProxyObject
 90
      499
 91
      509
 93
       34
310
40C8804040
  0
XRECORD
  5
100003BB
102
{ACAD_REACTORS
330
100003BA
102
}
330
100003BA
100
AcDbXrecord
1000
KFNG
  0
XRECORD
  5
100003BF
102
{ACAD_REACTORS
330
100003BC
102
}
330
100003BC
100
AcDbXrecord
1040
0.0
1040
0.0
1040
0.0
  0
XRECORD
  5
100003C0
102
{ACAD_REACTORS
330
100003BC
102
}
330
100003BC
100
AcDbXrecord
 40
0.0
  0
XRECORD
  5
100003BD
102
{ACAD_REACTORS
330
100003BC
102
}
330
100003BC
100
AcDbXrecord
1000
JFJ
  0
ACAD_PROXY_OBJECT
  5
100003BE
102
{ACAD_REACTORS
330
100003BC
102
}
330
100003BC
100
AcDbProxyObject
 90
      499
 91
      509
 93
       34
310
40C8804040
  0
XRECORD
  5
100003C5
102
{ACAD_REACTORS
330
100003C4
102
}
330
100003C4
100
AcDbXrecord
1000
KFlM
  0
XRECORD
  5
100003C8
102
{ACAD_REACTORS
330
100003C7
102
}
330
100003C7
100
AcDbXrecord
1000
KFFD
  0
XRECORD
  5
100003CA
102
{ACAD_REACTORS
330
100003C9
102
}
330
100003C9
100
AcDbXrecord
1000
KFhB
  0
XRECORD
  5
100003CF
102
{ACAD_REACTORS
330
100003CE
102
}
330
100003CE
100
AcDbXrecord
1000
KFlH
  0
XRECORD
  5
100003D5
102
{ACAD_REACTORS
330
100003D4
102
}
330
100003D4
100
AcDbXrecord
1000
KFhH
  0
XRECORD
  5
100003D8
102
{ACAD_REACTORS
330
100003D7
102
}
330
100003D7
100
AcDbXrecord
1000
KFVE
  0
XRECORD
  5
100003DA
102
{ACAD_REACTORS
330
100003D9
102
}
330
100003D9
100
AcDbXrecord
1000
KFRE
  0
XRECORD
  5
100003DE
102
{ACAD_REACTORS
330
100003DB
102
}
330
100003DB
100
AcDbXrecord
1040
0.0
1040
0.0
1040
0.0
  0
XRECORD
  5
100003DF
102
{ACAD_REACTORS
330
100003DB
102
}
330
100003DB
100
AcDbXrecord
 40
0.0
  0
XRECORD
  5
100003DC
102
{ACAD_REACTORS
330
100003DB
102
}
330
100003DB
100
AcDbXrecord
1000
KFNE
  0
ACAD_PROXY_OBJECT
  5
100003DD
102
{ACAD_REACTORS
330
100003DB
102
}
330
100003DB
100
AcDbProxyObject
 90
      499
 91
      509
 93
       34
310
40C8804040
  0
XRECORD
  5
100003E3
102
{ACAD_REACTORS
330
100003E0
102
}
330
100003E0
100
AcDbXrecord
1040
0.0
1040
0.0
1040
0.0
  0
XRECORD
  5
100003E4
102
{ACAD_REACTORS
330
100003E0
102
}
330
100003E0
100
AcDbXrecord
 40
0.0
  0
XRECORD
  5
100003E1
102
{ACAD_REACTORS
330
100003E0
102
}
330
100003E0
100
AcDbXrecord
1000
KFJE
  0
ACAD_PROXY_OBJECT
  5
100003E2
102
{ACAD_REACTORS
330
100003E0
102
}
330
100003E0
100
AcDbProxyObject
 90
      499
 91
      509
 93
       34
310
40C8804040
  0
XRECORD
  5
100003E6
102
{ACAD_REACTORS
330
100003E5
102
}
330
100003E5
100
AcDbXrecord
1000
KFFE
  0
XRECORD
  5
100003EA
102
{ACAD_REACTORS
330
100003E7
102
}
330
100003E7
100
AcDbXrecord
1040
0.0
1040
0.0
1040
0.0
  0
XRECORD
  5
100003EB
102
{ACAD_REACTORS
330
100003E7
102
}
330
100003E7
100
AcDbXrecord
 40
0.0
  0
XRECORD
  5
100003E8
102
{ACAD_REACTORS
330
100003E7
102
}
330
100003E7
100
AcDbXrecord
1000
KFBE
  0
ACAD_PROXY_OBJECT
  5
100003E9
102
{ACAD_REACTORS
330
100003E7
102
}
330
100003E7
100
AcDbProxyObject
 90
      499
 91
      509
 93
       34
310
40C8804040
  0
XRECORD
  5
100003EF
102
{ACAD_REACTORS
330
100003EC
102
}
330
100003EC
100
AcDbXrecord
1040
0.0
1040
0.0
1040
0.0
  0
XRECORD
  5
100003F0
102
{ACAD_REACTORS
330
100003EC
102
}
330
100003EC
100
AcDbXrecord
 40
0.0
  0
XRECORD
  5
100003ED
102
{ACAD_REACTORS
330
100003EC
102
}
330
100003EC
100
AcDbXrecord
1000
KF9D
  0
ACAD_PROXY_OBJECT
  5
100003EE
102
{ACAD_REACTORS
330
100003EC
102
}
330
100003EC
100
AcDbProxyObject
 90
      499
 91
      509
 93
       34
310
40C8804040
  0
XRECORD
  5
100003F4
102
{ACAD_REACTORS
330
100003F1
102
}
330
100003F1
100
AcDbXrecord
1040
0.0
1040
0.0
1040
0.0
  0
XRECORD
  5
100003F5
102
{ACAD_REACTORS
330
100003F1
102
}
330
100003F1
100
AcDbXrecord
 40
0.0
  0
XRECORD
  5
100003F2
102
{ACAD_REACTORS
330
100003F1
102
}
330
100003F1
100
AcDbXrecord
1000
KF5D
  0
ACAD_PROXY_OBJECT
  5
100003F3
102
{ACAD_REACTORS
330
100003F1
102
}
330
100003F1
100
AcDbProxyObject
 90
      499
 91
      509
 93
       34
310
40C8804040
  0
XRECORD
  5
100003F9
102
{ACAD_REACTORS
330
100003F6
102
}
330
100003F6
100
AcDbXrecord
1040
0.0
1040
0.0
1040
0.0
  0
XRECORD
  5
100003FA
102
{ACAD_REACTORS
330
100003F6
102
}
330
100003F6
100
AcDbXrecord
 40
0.0
  0
XRECORD
  5
100003F7
102
{ACAD_REACTORS
330
100003F6
102
}
330
100003F6
100
AcDbXrecord
1000
KF1D
  0
ACAD_PROXY_OBJECT
  5
100003F8
102
{ACAD_REACTORS
330
100003F6
102
}
330
100003F6
100
AcDbProxyObject
 90
      499
 91
      509
 93
       34
310
40C8804040
  0
XRECORD
  5
100003FE
102
{ACAD_REACTORS
330
100003FB
102
}
330
100003FB
100
AcDbXrecord
1040
0.0
1040
0.0
1040
0.0
  0
XRECORD
  5
100003FF
102
{ACAD_REACTORS
330
100003FB
102
}
330
100003FB
100
AcDbXrecord
 40
0.0
  0
XRECORD
  5
100003FC
102
{ACAD_REACTORS
330
100003FB
102
}
330
100003FB
100
AcDbXrecord
1000
KFxD
  0
ACAD_PROXY_OBJECT
  5
100003FD
102
{ACAD_REACTORS
330
100003FB
102
}
330
100003FB
100
AcDbProxyObject
 90
      499
 91
      509
 93
       34
310
40C8804040
  0
XRECORD
  5
10000403
102
{ACAD_REACTORS
330
10000400
102
}
330
10000400
100
AcDbXrecord
1040
0.0
1040
0.0
1040
0.0
  0
XRECORD
  5
10000404
102
{ACAD_REACTORS
330
10000400
102
}
330
10000400
100
AcDbXrecord
 40
0.0
  0
XRECORD
  5
10000401
102
{ACAD_REACTORS
330
10000400
102
}
330
10000400
100
AcDbXrecord
1000
KFtD
  0
ACAD_PROXY_OBJECT
  5
10000402
102
{ACAD_REACTORS
330
10000400
102
}
330
10000400
100
AcDbProxyObject
 90
      499
 91
      509
 93
       34
310
40C8804040
  0
XRECORD
  5
10000408
102
{ACAD_REACTORS
330
10000405
102
}
330
10000405
100
AcDbXrecord
1040
0.0
1040
0.0
1040
0.0
  0
XRECORD
  5
10000409
102
{ACAD_REACTORS
330
10000405
102
}
330
10000405
100
AcDbXrecord
 40
0.0
  0
XRECORD
  5
10000406
102
{ACAD_REACTORS
330
10000405
102
}
330
10000405
100
AcDbXrecord
1000
KFVG
  0
ACAD_PROXY_OBJECT
  5
10000407
102
{ACAD_REACTORS
330
10000405
102
}
330
10000405
100
AcDbProxyObject
 90
      499
 91
      509
 93
       34
310
40C8804040
  0
XRECORD
  5
1000040D
102
{ACAD_REACTORS
330
1000040A
102
}
330
1000040A
100
AcDbXrecord
1040
0.0
1040
0.0
1040
0.0
  0
XRECORD
  5
1000040E
102
{ACAD_REACTORS
330
1000040A
102
}
330
1000040A
100
AcDbXrecord
 40
0.0
  0
XRECORD
  5
1000040B
102
{ACAD_REACTORS
330
1000040A
102
}
330
1000040A
100
AcDbXrecord
1000
KFZG
  0
ACAD_PROXY_OBJECT
  5
1000040C
102
{ACAD_REACTORS
330
1000040A
102
}
330
1000040A
100
AcDbProxyObject
 90
      499
 91
      509
 93
       34
310
40C8804040
  0
XRECORD
  5
10000412
102
{ACAD_REACTORS
330
1000040F
102
}
330
1000040F
100
AcDbXrecord
1040
0.0
1040
0.0
1040
0.0
  0
XRECORD
  5
10000413
102
{ACAD_REACTORS
330
1000040F
102
}
330
1000040F
100
AcDbXrecord
 40
0.0
  0
XRECORD
  5
10000410
102
{ACAD_REACTORS
330
1000040F
102
}
330
1000040F
100
AcDbXrecord
1000
KFdG
  0
ACAD_PROXY_OBJECT
  5
10000411
102
{ACAD_REACTORS
330
1000040F
102
}
330
1000040F
100
AcDbProxyObject
 90
      499
 91
      509
 93
       34
310
40C8804040
  0
XRECORD
  5
10000417
102
{ACAD_REACTORS
330
10000414
102
}
330
10000414
100
AcDbXrecord
1040
0.0
1040
0.0
1040
0.0
  0
XRECORD
  5
10000418
102
{ACAD_REACTORS
330
10000414
102
}
330
10000414
100
AcDbXrecord
 40
0.0
  0
XRECORD
  5
10000415
102
{ACAD_REACTORS
330
10000414
102
}
330
10000414
100
AcDbXrecord
1000
KFhG
  0
ACAD_PROXY_OBJECT
  5
10000416
102
{ACAD_REACTORS
330
10000414
102
}
330
10000414
100
AcDbProxyObject
 90
      499
 91
      509
 93
       34
310
40C8804040
  0
XRECORD
  5
1000041D
102
{ACAD_REACTORS
330
1000041C
102
}
330
1000041C
100
AcDbXrecord
1000
KFlG
  0
XRECORD
  5
10000423
102
{ACAD_REACTORS
330
10000422
102
}
330
10000422
100
AcDbXrecord
1000
KFpG
  0
XRECORD
  5
10000429
102
{ACAD_REACTORS
330
10000428
102
}
330
10000428
100
AcDbXrecord
1000
KFtG
  0
XRECORD
  5
1000042F
102
{ACAD_REACTORS
330
1000042E
102
}
330
1000042E
100
AcDbXrecord
1000
KFxG
  0
XRECORD
  5
10000432
102
{ACAD_REACTORS
330
10000431
102
}
330
10000431
100
AcDbXrecord
1000
KF1G
  0
XRECORD
  5
10000434
102
{ACAD_REACTORS
330
10000433
102
}
330
10000433
100
AcDbXrecord
1000
KF5G
  0
XRECORD
  5
10000439
102
{ACAD_REACTORS
330
10000438
102
}
330
10000438
100
AcDbXrecord
1000
KF9G
  0
XRECORD
  5
1000043F
102
{ACAD_REACTORS
330
1000043E
102
}
330
1000043E
100
AcDbXrecord
1000
KFBH
  0
XRECORD
  5
10000445
102
{ACAD_REACTORS
330
10000444
102
}
330
10000444
100
AcDbXrecord
1000
KFFH
  0
XRECORD
  5
1000044B
102
{ACAD_REACTORS
330
1000044A
102
}
330
1000044A
100
AcDbXrecord
1000
KFJH
  0
XRECORD
  5
10000451
102
{ACAD_REACTORS
330
10000450
102
}
330
10000450
100
AcDbXrecord
1000
KFNH
  0
XRECORD
  5
10000457
102
{ACAD_REACTORS
330
10000456
102
}
330
10000456
100
AcDbXrecord
1000
KFRH
  0
XRECORD
  5
1000045A
102
{ACAD_REACTORS
330
10000459
102
}
330
10000459
100
AcDbXrecord
1000
KFVH
  0
XRECORD
  5
1000045C
102
{ACAD_REACTORS
330
1000045B
102
}
330
1000045B
100
AcDbXrecord
1000
KFZH
  0
XRECORD
  5
10000461
102
{ACAD_REACTORS
330
10000460
102
}
330
10000460
100
AcDbXrecord
1000
KFdH
  0
XRECORD
  5
10000464
102
{ACAD_REACTORS
330
10000463
102
}
330
10000463
100
AcDbXrecord
1000
KFRI
  0
XRECORD
  5
10000466
102
{ACAD_REACTORS
330
10000465
102
}
330
10000465
100
AcDbXrecord
1000
KFVI
  0
XRECORD
  5
1000046B
102
{ACAD_REACTORS
330
1000046A
102
}
330
1000046A
100
AcDbXrecord
1000
KFZI
  0
XRECORD
  5
10000471
102
{ACAD_REACTORS
330
10000470
102
}
330
10000470
100
AcDbXrecord
1000
KFdI
  0
XRECORD
  5
10000477
102
{ACAD_REACTORS
330
10000476
102
}
330
10000476
100
AcDbXrecord
1000
KFhI
  0
XRECORD
  5
1000047D
102
{ACAD_REACTORS
330
1000047C
102
}
330
1000047C
100
AcDbXrecord
1000
KFlI
  0
XRECORD
  5
10000483
102
{ACAD_REACTORS
330
10000482
102
}
330
10000482
100
AcDbXrecord
1000
KFpI
  0
XRECORD
  5
10000489
102
{ACAD_REACTORS
330
10000488
102
}
330
10000488
100
AcDbXrecord
1000
KFtI
  0
XRECORD
  5
1000048F
102
{ACAD_REACTORS
330
1000048E
102
}
330
1000048E
100
AcDbXrecord
1000
KFxI
  0
XRECORD
  5
10000495
102
{ACAD_REACTORS
330
10000494
102
}
330
10000494
100
AcDbXrecord
1000
KF1I
  0
XRECORD
  5
10000498
102
{ACAD_REACTORS
330
10000497
102
}
330
10000497
100
AcDbXrecord
1000
KF5I
  0
XRECORD
  5
1000049D
102
{ACAD_REACTORS
330
1000049C
102
}
330
1000049C
100
AcDbXrecord
1000
KF9I
  0
XRECORD
  5
100004A3
102
{ACAD_REACTORS
330
100004A2
102
}
330
100004A2
100
AcDbXrecord
1000
KFBJ
  0
XRECORD
  5
100004A9
102
{ACAD_REACTORS
330
100004A8
102
}
330
100004A8
100
AcDbXrecord
1000
KFFJ
  0
XRECORD
  5
100004AF
102
{ACAD_REACTORS
330
100004AE
102
}
330
100004AE
100
AcDbXrecord
1000
KFJJ
  0
XRECORD
  5
100004B2
102
{ACAD_REACTORS
330
100004B1
102
}
330
100004B1
100
AcDbXrecord
1000
KFNJ
  0
XRECORD
  5
100004B4
102
{ACAD_REACTORS
330
100004B3
102
}
330
100004B3
100
AcDbXrecord
1000
KFRJ
  0
XRECORD
  5
100004B6
102
{ACAD_REACTORS
330
100004B5
102
}
330
100004B5
100
AcDbXrecord
1000
KFVJ
  0
XRECORD
  5
100004B8
102
{ACAD_REACTORS
330
100004B7
102
}
330
100004B7
100
AcDbXrecord
1000
KFZJ
  0
XRECORD
  5
100004BA
102
{ACAD_REACTORS
330
100004B9
102
}
330
100004B9
100
AcDbXrecord
1000
KFdJ
  0
XRECORD
  5
100004BC
102
{ACAD_REACTORS
330
100004BB
102
}
330
100004BB
100
AcDbXrecord
1000
KFhJ
  0
XRECORD
  5
100004C1
102
{ACAD_REACTORS
330
100004C0
102
}
330
100004C0
100
AcDbXrecord
1000
KFlJ
  0
XRECORD
  5
100004C7
102
{ACAD_REACTORS
330
100004C6
102
}
330
100004C6
100
AcDbXrecord
1000
KFpJ
  0
XRECORD
  5
100004CD
102
{ACAD_REACTORS
330
100004CC
102
}
330
100004CC
100
AcDbXrecord
1000
KFtJ
  0
XRECORD
  5
100004D3
102
{ACAD_REACTORS
330
100004D2
102
}
330
100004D2
100
AcDbXrecord
1000
KFxJ
  0
XRECORD
  5
100004D6
102
{ACAD_REACTORS
330
100004D5
102
}
330
100004D5
100
AcDbXrecord
1000
KF1J
  0
XRECORD
  5
100004D8
102
{ACAD_REACTORS
330
100004D7
102
}
330
100004D7
100
AcDbXrecord
1000
KF5J
  0
XRECORD
  5
100004DD
102
{ACAD_REACTORS
330
100004DC
102
}
330
100004DC
100
AcDbXrecord
1000
KF9J
  0
XRECORD
  5
100004E3
102
{ACAD_REACTORS
330
100004E2
102
}
330
100004E2
100
AcDbXrecord
1000
KFBK
  0
XRECORD
  5
100004E9
102
{ACAD_REACTORS
330
100004E8
102
}
330
100004E8
100
AcDbXrecord
1000
KFFK
  0
XRECORD
  5
100004EF
102
{ACAD_REACTORS
330
100004EE
102
}
330
100004EE
100
AcDbXrecord
1000
KFJK
  0
XRECORD
  5
100004F5
102
{ACAD_REACTORS
330
100004F4
102
}
330
100004F4
100
AcDbXrecord
1000
KFNK
  0
XRECORD
  5
100004FB
102
{ACAD_REACTORS
330
100004FA
102
}
330
100004FA
100
AcDbXrecord
1000
KFRK
  0
XRECORD
  5
100004FE
102
{ACAD_REACTORS
330
100004FD
102
}
330
100004FD
100
AcDbXrecord
1000
KFVK
  0
XRECORD
  5
10000503
102
{ACAD_REACTORS
330
10000502
102
}
330
10000502
100
AcDbXrecord
1000
KFZK
  0
XRECORD
  5
10000509
102
{ACAD_REACTORS
330
10000508
102
}
330
10000508
100
AcDbXrecord
1000
KFdK
  0
XRECORD
  5
1000050F
102
{ACAD_REACTORS
330
1000050E
102
}
330
1000050E
100
AcDbXrecord
1000
KFhK
  0
XRECORD
  5
10000515
102
{ACAD_REACTORS
330
10000514
102
}
330
10000514
100
AcDbXrecord
1000
KFlK
  0
XRECORD
  5
1000051B
102
{ACAD_REACTORS
330
1000051A
102
}
330
1000051A
100
AcDbXrecord
1000
KFpK
  0
XRECORD
  5
10000521
102
{ACAD_REACTORS
330
10000520
102
}
330
10000520
100
AcDbXrecord
1000
KFtK
  0
XRECORD
  5
10000524
102
{ACAD_REACTORS
330
10000523
102
}
330
10000523
100
AcDbXrecord
1000
KFxK
  0
XRECORD
  5
10000529
102
{ACAD_REACTORS
330
10000528
102
}
330
10000528
100
AcDbXrecord
1000
KF1K
  0
XRECORD
  5
1000052C
102
{ACAD_REACTORS
330
1000052B
102
}
330
1000052B
100
AcDbXrecord
1000
KF5K
  0
XRECORD
  5
10000531
102
{ACAD_REACTORS
330
10000530
102
}
330
10000530
100
AcDbXrecord
1000
KF9K
  0
XRECORD
  5
10000537
102
{ACAD_REACTORS
330
10000536
102
}
330
10000536
100
AcDbXrecord
1000
KFBL
  0
XRECORD
  5
1000053D
102
{ACAD_REACTORS
330
1000053C
102
}
330
1000053C
100
AcDbXrecord
1000
KFFL
  0
XRECORD
  5
10000543
102
{ACAD_REACTORS
330
10000542
102
}
330
10000542
100
AcDbXrecord
1000
KFJL
  0
XRECORD
  5
10000546
102
{ACAD_REACTORS
330
10000545
102
}
330
10000545
100
AcDbXrecord
1000
KFNL
  0
XRECORD
  5
10000548
102
{ACAD_REACTORS
330
10000547
102
}
330
10000547
100
AcDbXrecord
1000
KFRL
  0
XRECORD
  5
1000054A
102
{ACAD_REACTORS
330
10000549
102
}
330
10000549
100
AcDbXrecord
1000
KFVL
  0
XRECORD
  5
1000054C
102
{ACAD_REACTORS
330
1000054B
102
}
330
1000054B
100
AcDbXrecord
1000
KFZL
  0
XRECORD
  5
1000054E
102
{ACAD_REACTORS
330
1000054D
102
}
330
1000054D
100
AcDbXrecord
1000
KFdL
  0
XRECORD
  5
10000553
102
{ACAD_REACTORS
330
10000552
102
}
330
10000552
100
AcDbXrecord
1000
KFhL
  0
XRECORD
  5
10000556
102
{ACAD_REACTORS
330
10000555
102
}
330
10000555
100
AcDbXrecord
1000
KFlL
  0
XRECORD
  5
1000055B
102
{ACAD_REACTORS
330
1000055A
102
}
330
1000055A
100
AcDbXrecord
1000
KFpL
  0
XRECORD
  5
10000561
102
{ACAD_REACTORS
330
10000560
102
}
330
10000560
100
AcDbXrecord
1000
KFtL
  0
XRECORD
  5
10000567
102
{ACAD_REACTORS
330
10000566
102
}
330
10000566
100
AcDbXrecord
1000
KFxL
  0
XRECORD
  5
1000056D
102
{ACAD_REACTORS
330
1000056C
102
}
330
1000056C
100
AcDbXrecord
1000
KF1L
  0
XRECORD
  5
10000570
102
{ACAD_REACTORS
330
1000056F
102
}
330
1000056F
100
AcDbXrecord
1000
KF5L
  0
XRECORD
  5
10000572
102
{ACAD_REACTORS
330
10000571
102
}
330
10000571
100
AcDbXrecord
1000
KF9L
  0
XRECORD
  5
10000577
102
{ACAD_REACTORS
330
10000576
102
}
330
10000576
100
AcDbXrecord
1000
KFBM
  0
XRECORD
  5
1000057D
102
{ACAD_REACTORS
330
1000057C
102
}
330
1000057C
100
AcDbXrecord
1000
KFFM
  0
XRECORD
  5
10000583
102
{ACAD_REACTORS
330
10000582
102
}
330
10000582
100
AcDbXrecord
1000
KFJM
  0
XRECORD
  5
10000586
102
{ACAD_REACTORS
330
10000585
102
}
330
10000585
100
AcDbXrecord
1000
KFNM
  0
XRECORD
  5
1000058B
102
{ACAD_REACTORS
330
1000058A
102
}
330
1000058A
100
AcDbXrecord
1000
KFRM
  0
XRECORD
  5
10000591
102
{ACAD_REACTORS
330
10000590
102
}
330
10000590
100
AcDbXrecord
1000
KFVM
  0
XRECORD
  5
10000597
102
{ACAD_REACTORS
330
10000596
102
}
330
10000596
100
AcDbXrecord
1000
KFZM
  0
XRECORD
  5
1000059D
102
{ACAD_REACTORS
330
1000059C
102
}
330
1000059C
100
AcDbXrecord
1000
KFNN
  0
XRECORD
  5
100005A3
102
{ACAD_REACTORS
330
100005A2
102
}
330
100005A2
100
AcDbXrecord
1000
KFRN
  0
XRECORD
  5
100005A9
102
{ACAD_REACTORS
330
100005A8
102
}
330
100005A8
100
AcDbXrecord
1000
KFVN
  0
XRECORD
  5
100005AF
102
{ACAD_REACTORS
330
100005AE
102
}
330
100005AE
100
AcDbXrecord
1000
KFZN
  0
MATERIAL
  5
45
102
{ACAD_REACTORS
330
43
102
}
102
{ACAD_XDICTIONARY
360
100005E2
102
}
330
43
100
AcDbMaterial
  1
BYBLOCK
  0
MATERIAL
  5
44
102
{ACAD_REACTORS
330
43
102
}
102
{ACAD_XDICTIONARY
360
100005E0
102
}
330
43
100
AcDbMaterial
  1
BYLAYER
  0
MATERIAL
  5
46
102
{ACAD_REACTORS
330
43
102
}
102
{ACAD_XDICTIONARY
360
100005E4
102
}
330
43
100
AcDbMaterial
  1
GLOBAL
  0
ACAD_PROXY_OBJECT
  5
6C
102
{ACAD_REACTORS
330
6B
102
}
330
6B
100
AcDbProxyObject
 90
      499
 91
      505
 93
      610
310
40901902A4063FBFFFFFE056BD1B81E855B9FC0AD7A3703D0AD73F4214DD185B99185C9900AD7A3703D0AC73F90141901A02B5E8DC0F42B1CFC02B5E8DC0F42B1CFE5764000000000000300FC0
340
14
340
0
340
11
340
0
 94
        0
1001
ACAD_MLEADERVER
1070
     2
  0
MLINESTYLE
  5
18
102
{ACAD_REACTORS
330
17
102
}
330
17
100
AcDbMlineStyle
  2
Standard
 70
     0
  3

 62
   256
 51
90.0
 52
90.0
 71
     2
 49
0.5
 62
   256
  6
BYLAYER
 49
-0.5
 62
   256
  6
BYLAYER
  0
ACAD_PROXY_OBJECT
  5
10000023
102
{ACAD_REACTORS
330
47
102
}
330
47
100
AcDbProxyObject
 90
      499
 91
      503
 93
      121
310
9053130303A310000000000001650100
  0
ACAD_PROXY_OBJECT
  5
1000001D
102
{ACAD_REACTORS
330
47
102
}
330
47
100
AcDbProxyObject
 90
      499
 91
      503
 93
      113
310
90431303A310000000000000910100
  0
ACAD_PROXY_OBJECT
  5
1000001E
102
{ACAD_REACTORS
330
47
102
}
330
47
100
AcDbProxyObject
 90
      499
 91
      503
 93
      113
310
90431323A310000000000000A10100
  0
ACAD_PROXY_OBJECT
  5
1000001F
102
{ACAD_REACTORS
330
47
102
}
330
47
100
AcDbProxyObject
 90
      499
 91
      503
 93
      113
310
90431363A310000000000000C10100
  0
ACAD_PROXY_OBJECT
  5
10000006
102
{ACAD_REACTORS
330
47
102
}
330
47
100
AcDbProxyObject
 90
      499
 91
      503
 93
       41
310
903313A31500
  0
ACAD_PROXY_OBJECT
  5
1000000D
102
{ACAD_REACTORS
330
47
102
}
330
47
100
AcDbProxyObject
 90
      499
 91
      503
 93
      113
310
904313A31304000000000000244000
  0
ACAD_PROXY_OBJECT
  5
10000016
102
{ACAD_REACTORS
330
47
102
}
330
47
100
AcDbProxyObject
 90
      499
 91
      503
 93
      121
310
905313A3130304000000000000594000
  0
ACAD_PROXY_OBJECT
  5
1000000E
102
{ACAD_REACTORS
330
47
102
}
330
47
100
AcDbProxyObject
 90
      499
 91
      503
 93
      113
310
904313A31324000000000000284000
  0
ACAD_PROXY_OBJECT
  5
1000000F
102
{ACAD_REACTORS
330
47
102
}
330
47
100
AcDbProxyObject
 90
      499
 91
      503
 93
      113
310
904313A31364000000000000304000
  0
ACAD_PROXY_OBJECT
  5
10000007
102
{ACAD_REACTORS
330
47
102
}
330
47
100
AcDbProxyObject
 90
      499
 91
      503
 93
      105
310
903313A324000000000000004000
  0
ACAD_PROXY_OBJECT
  5
10000010
102
{ACAD_REACTORS
330
47
102
}
330
47
100
AcDbProxyObject
 90
      499
 91
      503
 93
      113
310
904313A32304000000000000344000
  0
ACAD_PROXY_OBJECT
  5
10000011
102
{ACAD_REACTORS
330
47
102
}
330
47
100
AcDbProxyObject
 90
      499
 91
      503
 93
      113
310
904313A32354000000000000394000
  0
ACAD_PROXY_OBJECT
  5
10000008
102
{ACAD_REACTORS
330
47
102
}
330
47
100
AcDbProxyObject
 90
      499
 91
      503
 93
      105
310
903313A334000000000000084000
  0
ACAD_PROXY_OBJECT
  5
10000012
102
{ACAD_REACTORS
330
47
102
}
330
47
100
AcDbProxyObject
 90
      499
 91
      503
 93
      113
310
904313A33324000000000000404000
  0
ACAD_PROXY_OBJECT
  5
10000009
102
{ACAD_REACTORS
330
47
102
}
330
47
100
AcDbProxyObject
 90
      499
 91
      503
 93
      105
310
903313A344000000000000104000
  0
ACAD_PROXY_OBJECT
  5
10000013
102
{ACAD_REACTORS
330
47
102
}
330
47
100
AcDbProxyObject
 90
      499
 91
      503
 93
      113
310
904313A34304000000000000444000
  0
ACAD_PROXY_OBJECT
  5
1000000A
102
{ACAD_REACTORS
330
47
102
}
330
47
100
AcDbProxyObject
 90
      499
 91
      503
 93
      105
310
903313A354000000000000144000
  0
ACAD_PROXY_OBJECT
  5
10000014
102
{ACAD_REACTORS
330
47
102
}
330
47
100
AcDbProxyObject
 90
      499
 91
      503
 93
      113
310
904313A35304000000000000494000
  0
ACAD_PROXY_OBJECT
  5
1000000B
102
{ACAD_REACTORS
330
47
102
}
330
47
100
AcDbProxyObject
 90
      499
 91
      503
 93
      105
310
903313A364000000000000184000
  0
ACAD_PROXY_OBJECT
  5
1000000C
102
{ACAD_REACTORS
330
47
102
}
330
47
100
AcDbProxyObject
 90
      499
 91
      503
 93
      105
310
903313A384000000000000204000
  0
ACAD_PROXY_OBJECT
  5
10000015
102
{ACAD_REACTORS
330
47
102
}
330
47
100
AcDbProxyObject
 90
      499
 91
      503
 93
      113
310
904313A38304000000000000544000
  0
ACAD_PROXY_OBJECT
  5
10000020
102
{ACAD_REACTORS
330
47
102
}
330
47
100
AcDbProxyObject
 90
      499
 91
      503
 93
      113
310
90432303A310000000000000D10100
  0
ACAD_PROXY_OBJECT
  5
10000017
102
{ACAD_REACTORS
330
47
102
}
330
47
100
AcDbProxyObject
 90
      499
 91
      503
 93
      105
310
903323A310000000000000010100
  0
ACAD_PROXY_OBJECT
  5
10000021
102
{ACAD_REACTORS
330
47
102
}
330
47
100
AcDbProxyObject
 90
      499
 91
      503
 93
      113
310
90433323A310000000000001010100
  0
ACAD_PROXY_OBJECT
  5
10000018
102
{ACAD_REACTORS
330
47
102
}
330
47
100
AcDbProxyObject
 90
      499
 91
      503
 93
      105
310
903333A310000000000000210100
  0
ACAD_PROXY_OBJECT
  5
10000019
102
{ACAD_REACTORS
330
47
102
}
330
47
100
AcDbProxyObject
 90
      499
 91
      503
 93
      105
310
903343A310000000000000410100
  0
ACAD_PROXY_OBJECT
  5
10000022
102
{ACAD_REACTORS
330
47
102
}
330
47
100
AcDbProxyObject
 90
      499
 91
      503
 93
      113
310
90435303A310000000000001250100
  0
ACAD_PROXY_OBJECT
  5
1000001A
102
{ACAD_REACTORS
330
47
102
}
330
47
100
AcDbProxyObject
 90
      499
 91
      503
 93
      105
310
903353A310000000000000510100
  0
ACAD_PROXY_OBJECT
  5
1000001B
102
{ACAD_REACTORS
330
47
102
}
330
47
100
AcDbProxyObject
 90
      499
 91
      503
 93
      105
310
903363A310000000000000610100
  0
ACAD_PROXY_OBJECT
  5
1000001C
102
{ACAD_REACTORS
330
47
102
}
330
47
100
AcDbProxyObject
 90
      499
 91
      503
 93
      105
310
903383A310000000000000810100
  0
ACAD_PROXY_OBJECT
  5
2F
102
{ACAD_REACTORS
330
2A
102
}
330
2A
100
AcDbProxyObject
 90
      499
 91
      501
 93
      436
310
42CC9915DA5C99599C985B595049028333333333333E33F0000000000000F90107901411070040501600405405064090741402480A0340
1001
ACAD
1000
AcDbSavedByObjectVersion
1070
     0
  0
ACAD_PROXY_OBJECT
  5
32
102
{ACAD_REACTORS
330
2A
102
}
330
2A
100
AcDbProxyObject
 90
      499
 91
      501
 93
      388
310
4150985CDA58D07406404333333333333E33F0000000000000F90107A41107004050150841D405064090741402480A0350
1001
ACAD
1000
AcDbSavedByObjectVersion
1070
     0
  0
ACAD_PROXY_OBJECT
  5
36
102
{ACAD_REACTORS
330
2A
102
}
330
2A
100
AcDbProxyObject
 90
      499
 91
      501
 93
      428
310
42109C9A59DA1D195B90C409028333333333333E33F0000000000000F9010790141107004050150841D405064090741402480A029950
1001
ACAD
1000
AcDbSavedByObjectVersion
1070
     0
  0
ACAD_PROXY_OBJECT
  5
3A
102
{ACAD_REACTORS
330
2A
102
}
330
2A
100
AcDbProxyObject
 90
      499
 91
      501
 93
      452
310
42D0DBDB1BDC90DA185B99D95104090240C333333333333E33F0000000000000F90108901411070040501508421405064090741402480A0350
1001
ACAD
1000
AcDbSavedByObjectVersion
1070
     0
  0
ACAD_PROXY_OBJECT
  5
34
102
{ACAD_REACTORS
330
2A
102
}
330
2A
100
AcDbProxyObject
 90
      499
 91
      501
 93
      500
310
4290DBDB98D95C1D1D585B10940D028333333333333E33F0000000000000F90107902409070040501000000000018199010841D405064090740C02480A0340
1001
ACAD
1000
AcDbSavedByObjectVersion
1070
     0
  0
ACAD_PROXY_OBJECT
  5
35
102
{ACAD_REACTORS
330
2A
102
}
330
2A
100
AcDbProxyObject
 90
      499
 91
      501
 93
      412
310
40D11A5B50B409028333333333333E33F0000000000000F9010790141107004050150841D405064090741402480A02677FFFFFD0
1001
ACAD
1000
AcDbSavedByObjectVersion
1070
     0
  0
ACAD_PROXY_OBJECT
  5
3D
102
{ACAD_REACTORS
330
2A
102
}
330
2A
100
AcDbProxyObject
 90
      499
 91
      501
 93
      452
310
43115919D950DBDB1BDC93D999916409028333333333333E33F0000000000000F9010790141107004050150841D405064090741402480A0350
1001
ACAD
1000
AcDbSavedByObjectVersion
1070
     0
  0
ACAD_PROXY_OBJECT
  5
39
102
{ACAD_REACTORS
330
2A
102
}
330
2A
100
AcDbProxyObject
 90
      499
 91
      501
 93
      444
310
42D19858D95C185D1D195C9B90F409028333333333333E33F0000000000000F9010790141107004050150841D405064090741402480A0350
1001
ACAD
1000
AcDbSavedByObjectVersion
1070
     0
  0
ACAD_PROXY_OBJECT
  5
2B
102
{ACAD_REACTORS
330
2A
102
}
330
2A
100
AcDbProxyObject
 90
      499
 91
      501
 93
      380
310
41119B185D240901404333333333333E33F0000000000000F9010740A907004050150841D405064090741402480A1B50
1001
ACAD
1000
AcDbSavedByObjectVersion
1070
     0
  0
ACAD_PROXY_OBJECT
  5
2C
102
{ACAD_REACTORS
330
2A
102
}
330
2A
100
AcDbProxyObject
 90
      499
 91
      501
 93
      468
310
43519B185D15DA5D1A115919D95CD0140901404333333333333E33F0000000000000F90107409019070040501600405405064090741402480A1B50
1001
ACAD
1000
AcDbSavedByObjectVersion
1070
     0
  0
ACAD_PROXY_OBJECT
  5
2D
102
{ACAD_REACTORS
330
2A
102
}
330
2A
100
AcDbProxyObject
 90
      499
 91
      501
 93
      404
310
41D1DBDD5C985D5910240902404333333333333E33F0000000000000F9010740A9070040501641D405064090741402480A1B50
1001
ACAD
1000
AcDbSavedByObjectVersion
1070
     0
  0
ACAD_PROXY_OBJECT
  5
2E
102
{ACAD_REACTORS
330
2A
102
}
330
2A
100
AcDbProxyObject
 90
      499
 91
      501
 93
      492
310
4411DBDD5C985D5915DA5D1A115919D95CD0340902404333333333333E33F0000000000000F90107409019070040501600405405064090741402480A1B50
1001
ACAD
1000
AcDbSavedByObjectVersion
1070
     0
  0
ACAD_PROXY_OBJECT
  5
31
102
{ACAD_REACTORS
330
2A
102
}
330
2A
100
AcDbProxyObject
 90
      499
 91
      501
 93
      476
310
41921A5919195B90640502408333333333333E33F0000000000000F901079024090700405020000000000001110200405405064090740C02480A0340
1001
ACAD
1000
AcDbSavedByObjectVersion
1070
     0
  0
ACAD_PROXY_OBJECT
  5
3B
102
{ACAD_REACTORS
330
2A
102
}
330
2A
100
AcDbProxyObject
 90
      499
 91
      501
 93
      428
310
42529A5D1D195C93D999914409028333333333333E33F0000000000000F9010790141107004050150A41D405064090741402480A0350
1001
ACAD
1000
AcDbSavedByObjectVersion
1070
     0
  0
ACAD_PROXY_OBJECT
  5
38
102
{ACAD_REACTORS
330
2A
102
}
330
2A
100
AcDbProxyObject
 90
      499
 91
      501
 93
      444
310
42D31A5B995C185D1D195C9B90E409028333333333333E33F0000000000000F9010790141107004050750841D405064090741402483A0350
1001
ACAD
1000
AcDbSavedByObjectVersion
1070
     0
  0
ACAD_PROXY_OBJECT
  5
3C
102
{ACAD_REACTORS
330
2A
102
}
330
2A
100
AcDbProxyObject
 90
      499
 91
      501
 93
      444
310
42D3DD995C9A185B99D3D999915409028333333333333E33F0000000000000F9010790141107004050150941D405064090741402480A0350
1001
ACAD
1000
AcDbSavedByObjectVersion
1070
     0
  0
ACAD_PROXY_OBJECT
  5
33
102
{ACAD_REACTORS
330
2A
102
}
330
2A
100
AcDbProxyObject
 90
      499
 91
      501
 93
      428
310
425499585B1A5CDD1A58D08409038333333333333E33F0000000000000F9010740A907004050150800405405064090740C02480A1B40
1001
ACAD
1000
AcDbSavedByObjectVersion
1070
     0
  0
ACAD_PROXY_OBJECT
  5
42
102
{ACAD_REACTORS
330
2A
102
}
330
2A
100
AcDbProxyObject
 90
      499
 91
      501
 93
      420
310
4194DA1859195911B40902404333333333333E33F0000000000000F9010740A41107004050150800405405064090840C02480A0B40
1001
ACAD
1000
AcDbSavedByObjectVersion
1070
     0
  0
ACAD_PROXY_OBJECT
  5
41
102
{ACAD_REACTORS
330
2A
102
}
330
2A
100
AcDbProxyObject
 90
      499
 91
      501
 93
      516
310
4454DA18591959081DDA5D1A08195919D95CD1A40902404333333333333E33F0000000000000F901074090142907004050250800405405064090740C02480A0B40
1001
ACAD
1000
AcDbSavedByObjectVersion
1070
     0
  0
ACAD_PROXY_OBJECT
  5
3E
102
{ACAD_REACTORS
330
2A
102
}
330
2A
100
AcDbProxyObject
 90
      499
 91
      501
 93
      532
310
4394DA1859195CC81BD98811DC985E5174090240C333333333333E33F0000000000000F901079024090741D01000000000000111010841D405064090740C02480A0340
1001
ACAD
1000
AcDbSavedByObjectVersion
1070
     0
  0
ACAD_PROXY_OBJECT
  5
3F
102
{ACAD_REACTORS
330
2A
102
}
330
2A
100
AcDbProxyObject
 90
      499
 91
      501
 93
      476
310
41D4DAD95D18DA1E51840502408333333333333E33F0000000000000F901079024090741D01000000000000111010B41D405064090741802480A0340
1001
ACAD
1000
AcDbSavedByObjectVersion
1070
     0
  0
ACAD_PROXY_OBJECT
  5
37
102
{ACAD_REACTORS
330
2A
102
}
330
2A
100
AcDbProxyObject
 90
      499
 91
      501
 93
      412
310
41D51A1A58DAD95B90D409028333333333333E33F0000000000000F9010790141107004050150C41D405064090741402480A0350
1001
ACAD
1000
AcDbSavedByObjectVersion
1070
     0
  0
ACAD_PROXY_OBJECT
  5
30
102
{ACAD_REACTORS
330
2A
102
}
330
2A
100
AcDbProxyObject
 90
      499
 91
      501
 93
      420
310
4255DA5C99599C985B595059028333333333333E33F0000000000000F90107901411070040501600405405064090740C02480A0340
1001
ACAD
1000
AcDbSavedByObjectVersion
1070
     0
  0
ACAD_PROXY_OBJECT
  5
40
102
{ACAD_REACTORS
330
2A
102
}
330
2A
100
AcDbProxyObject
 90
      499
 91
      501
 93
      404
310
41560B54985E51940902404000000000000E03F0000000000000F9010740501907004050150841D405064090740C02480A1B40
1001
ACAD
1000
AcDbSavedByObjectVersion
1070
     0
  0
XRECORD
  5
100005BD
102
{ACAD_REACTORS
330
100005B3
102
}
330
100005B3
100
AcDbXrecord
340
0
  0
XRECORD
  5
100005BC
102
{ACAD_REACTORS
330
100005B3
102
}
330
100005B3
100
AcDbXrecord
 90
        0
  0
XRECORD
  5
100005D3
102
{ACAD_REACTORS
330
100005B3
102
}
330
100005B3
100
AcDbXrecord
1000
DSTYLE
1002
{
1070
   340
340
11
1002
}
  0
XRECORD
  5
100005BE
102
{ACAD_REACTORS
330
100005B3
102
}
330
100005B3
100
AcDbXrecord
  1
{6ea15495-c298-4a4a-bed0-f339d0243b1d}
  0
XRECORD
  5
100005B6
102
{ACAD_REACTORS
330
100005B3
102
}
330
100005B3
100
AcDbXrecord
  1

  0
XRECORD
  5
100005BB
102
{ACAD_REACTORS
330
100005B3
102
}
330
100005B3
100
AcDbXrecord
 90
        1
  0
XRECORD
  5
100005B8
102
{ACAD_REACTORS
330
100005B3
102
}
330
100005B3
100
AcDbXrecord
340
1A
  0
XRECORD
  5
100005BA
102
{ACAD_REACTORS
330
100005B3
102
}
330
100005B3
100
AcDbXrecord
 90
    10781
  0
XRECORD
  5
100005B9
102
{ACAD_REACTORS
330
100005B3
102
}
330
100005B3
100
AcDbXrecord
340
19
  0
XRECORD
  5
100005C0
102
{ACAD_REACTORS
330
100005B3
102
}
330
100005B3
100
AcDbXrecord
 40
0.0
  0
XRECORD
  5
100005C3
102
{ACAD_REACTORS
330
100005B3
102
}
330
100005B3
100
AcDbXrecord
340
0
  0
XRECORD
  5
100005C9
102
{ACAD_REACTORS
330
100005B3
102
}
330
100005B3
100
AcDbXrecord
 10
0.0
 20
0.0
 30
0.0
  0
XRECORD
  5
100005C5
102
{ACAD_REACTORS
330
100005B3
102
}
330
100005B3
100
AcDbXrecord
 10
0.0
 20
0.0
 30
0.0
  0
XRECORD
  5
100005C8
102
{ACAD_REACTORS
330
100005B3
102
}
330
100005B3
100
AcDbXrecord
 10
0.0
 20
0.0
 30
0.0
  0
XRECORD
  5
100005C6
102
{ACAD_REACTORS
330
100005B3
102
}
330
100005B3
100
AcDbXrecord
 10
0.0
 20
0.0
 30
0.0
  0
XRECORD
  5
100005C7
102
{ACAD_REACTORS
330
100005B3
102
}
330
100005B3
100
AcDbXrecord
 10
0.0
 20
0.0
 30
0.0
  0
XRECORD
  5
100005C4
102
{ACAD_REACTORS
330
100005B3
102
}
330
100005B3
100
AcDbXrecord
 10
0.0
 20
0.0
 30
0.0
  0
XRECORD
  5
100005C1
102
{ACAD_REACTORS
330
100005B3
102
}
330
100005B3
100
AcDbXrecord
340
0
  0
XRECORD
  5
100005C2
102
{ACAD_REACTORS
330
100005B3
102
}
330
100005B3
100
AcDbXrecord
 70
     0
  0
XRECORD
  5
100005B7
102
{ACAD_REACTORS
330
100005B3
102
}
330
100005B3
100
AcDbXrecord
  1

  0
XRECORD
  5
100005B4
102
{ACAD_REACTORS
330
100005B3
102
}
330
100005B3
100
AcDbXrecord
 90
        1
  0
XRECORD
  5
100005B5
102
{ACAD_REACTORS
330
100005B3
102
}
330
100005B3
100
AcDbXrecord
 90
       70
  0
XRECORD
  5
100005CC
102
{ACAD_REACTORS
330
100005B3
102
}
330
100005B3
100
AcDbXrecord
340
0
  0
XRECORD
  5
100005D2
102
{ACAD_REACTORS
330
100005B3
102
}
330
100005B3
100
AcDbXrecord
 10
0.0
 20
0.0
 30
0.0
  0
XRECORD
  5
100005CE
102
{ACAD_REACTORS
330
100005B3
102
}
330
100005B3
100
AcDbXrecord
 10
0.0
 20
0.0
 30
0.0
  0
XRECORD
  5
100005D1
102
{ACAD_REACTORS
330
100005B3
102
}
330
100005B3
100
AcDbXrecord
 10
0.0
 20
0.0
 30
0.0
  0
XRECORD
  5
100005CF
102
{ACAD_REACTORS
330
100005B3
102
}
330
100005B3
100
AcDbXrecord
 10
0.0
 20
0.0
 30
0.0
  0
XRECORD
  5
100005D0
102
{ACAD_REACTORS
330
100005B3
102
}
330
100005B3
100
AcDbXrecord
 10
0.0
 20
0.0
 30
0.0
  0
XRECORD
  5
100005CD
102
{ACAD_REACTORS
330
100005B3
102
}
330
100005B3
100
AcDbXrecord
 10
0.0
 20
0.0
 30
0.0
  0
XRECORD
  5
100005CA
102
{ACAD_REACTORS
330
100005B3
102
}
330
100005B3
100
AcDbXrecord
340
0
  0
XRECORD
  5
100005CB
102
{ACAD_REACTORS
330
100005B3
102
}
330
100005B3
100
AcDbXrecord
 70
     0
  0
XRECORD
  5
100005BF
102
{ACAD_REACTORS
330
100005B3
102
}
330
100005B3
100
AcDbXrecord
  1
{FAEB1C32-E019-11D5-929B-00C0DF256EC4}
  0
DICTIONARYVAR
  5
100005DE
102
{ACAD_REACTORS
330
100005D4
102
}
330
100005D4
100
DictionaryVariables
280
     0
  1
1:1
  0
DICTIONARYVAR
  5
100005D6
102
{ACAD_REACTORS
330
100005D4
102
}
330
100005D4
100
DictionaryVariables
280
     0
  1
Standard
  0
DICTIONARYVAR
  5
100005D5
102
{ACAD_REACTORS
330
100005D4
102
}
330
100005D4
100
DictionaryVariables
280
     0
  1
Standard
  0
DICTIONARYVAR
  5
100005D9
102
{ACAD_REACTORS
330
100005D4
102
}
330
100005D4
100
DictionaryVariables
280
     0
  1
2
  0
DICTIONARYVAR
  5
100005DA
102
{ACAD_REACTORS
330
100005D4
102
}
330
100005D4
100
DictionaryVariables
280
     0
  1
1
  0
DICTIONARYVAR
  5
100005DF
102
{ACAD_REACTORS
330
100005D4
102
}
330
100005D4
100
DictionaryVariables
280
     0
  1
1
  0
XRECORD
  5
10000003
102
{ACAD_REACTORS
330
10000001
102
}
330
10000001
100
AcDbXrecord
 70
     4
  0
XRECORD
  5
10000002
102
{ACAD_REACTORS
330
10000001
102
}
330
10000001
100
AcDbXrecord
1040
86.0
  0
ACAD_PROXY_OBJECT
  5
10000005
102
{ACAD_REACTORS
330
10000001
102
}
330
10000001
100
AcDbProxyObject
 90
      499
 91
      509
 93
       34
310
40C8804000
  0
DICTIONARY
  5
100005E2
330
45
100
AcDbDictionary
280
     1
  3
ACAD_XREC_ROUNDTRIP
360
100005E3
  0
DICTIONARY
  5
100005E0
330
44
100
AcDbDictionary
280
     1
  3
ACAD_XREC_ROUNDTRIP
360
100005E1
  0
DICTIONARY
  5
100005E4
330
46
100
AcDbDictionary
280
     1
  3
ACAD_XREC_ROUNDTRIP
360
100005E5
  0
XRECORD
  5
100005E3
102
{ACAD_REACTORS
330
100005E2
102
}
330
100005E2
100
AcDbXrecord
102
MATERIAL
148
0.0
149
0.0
149
0.0
 93
        0
 94
      127
282
     0
 72
     1
 77
     1
171
     1
175
     1
179
     1
273
     0
  0
XRECORD
  5
100005E1
102
{ACAD_REACTORS
330
100005E0
102
}
330
100005E0
100
AcDbXrecord
102
MATERIAL
148
0.0
149
0.0
149
0.0
 93
        0
 94
      127
282
     0
 72
     1
 77
     1
171
     1
175
     1
179
     1
273
     0
  0
XRECORD
  5
100005E5
102
{ACAD_REACTORS
330
100005E4
102
}
330
100005E4
100
AcDbXrecord
102
MATERIAL
148
0.0
149
0.0
149
0.0
 93
        0
 94
      127
282
     0
 72
     1
 77
     1
171
     1
175
     1
179
     1
273
     0
  0
ENDSEC
  0
EOF
